This Ol Cowboy

Marshall Tucker Band

E ---7-----5----3---2----0---0-------------|

B ---7-----7----3---2----0---2-------------|
G ---7-----6----4---2----0---2-------------|
D ---5-----7----5---2----2---2-------------|
A ---5-----5----5---4----2---0-------------|
E ---X-----x----3---2----0---0-------------|

 I'm sittin here in San Anton' waitin on the 8 o'clock train.

 My woman left me here last night, things aint quite the same.

 Gotta get back to Dallas and tie up a few loose ends..

 Gonna work a week make a hundred dollars and hit the road again.

 I dont want ya to think, your the first one to leave this old boy 

out here on his own.

'Cause this aint gonna be gonna be the first night this ol' cowboy

spent the night alone.

E -3-2-3-2-3-5-5---3-2-3-2-3-5-5-3-2-3-2---|

B ---------------------------------------3-|
G -----------------------------------------|
E -----------------------------------------------|

B ------3-5--5b7---------------------------------|
G -3-h4------------------------------------------|

Corrected by stagekraft. View original
A Dmaj7 Dm7 Dmaj7 E5 F#m7 G Gm7
variations - click chord images
Transpose chords:
Cool service:
View: Size:
A  A  A
  • Currently 3.1/5 Stars.
  • 1
  • 2
  • 3
  • 4
  • 5
  • Currently 2.9/5 Stars.
  • 1
  • 2
  • 3
  • 4
  • 5
click stars to rate
Login to add this song to your songbook
IMPORTANT: The song above is NOT stored on the Chordie server. The original song is hosted at Chordie works as a search engine and provides on-the-fly formating. Chordie does not index songs against artists/composers will. To remove this song please click here.

login to add comments/video/corrections