Guitar Tabs, Chords and Lyrics


California Part 2  Mason Jennings

b--------0------------------------------0--------------------------------|


e----1-----1-----3---0-1------------1-----1-----3---0-1------------------|


G------0-----0h2---2-----0------------0-----0h2---2----------------------|

D------------------------------------------------------------------------|
A--3----------------------------3----------------------------------------|
E------------------------------------------------------------------------|
e---0--------------8---7-5-3-5------------8--7-5----|
b-----------8-------------------------8-----------8--|
G----------------------------------------------------|
D----------------------------------------------------|
A----------------------------------------------------|
E----------------------------------------------------|
[C]I tell you what I'm gonna do [F]  [G]
I'm gonna l[C]ighten up [F]  [G]
I'm gonna th[C]row a box of books and my b[F]eloved gu[G]itar
into the b[C]ack of my truck
[F] And try my l[G]uck in
California Intro x 4


Gonna stay away from LA
Stayin far away from there
Going north of San Fransisco
Into the cleaner air
Gonna get a little land from the money I saved
Buy an old house that I can work on
where the next nearest neighbor lives miles away
I'll never have to mow the lawn, right on

and when the house is all finished
and the garden is grown
i'm gonna write you a letter
asking you to come home
and i know that you will come
yes i know that you will come
others may know where ya been
but honey i know where you're from, you're from


california

Important: The song above is NOT stored on the Chordie server. The original song is hosted at www.guitaretab.com. Chordie works as a search engine and provides on-the-fly formatting. Chordie does not index songs against artists'/composers' will. To remove this song please click here.

Text color:
Chord color:
Chord grids: 
Font size:    
Page size: 

C F G
variations - click chord images

Login - add to songbook

Transpose chords

Tuning

Rating click stars to rate

Layout
Accuracy

SHARE PAGE  




You need to log in to post comments