Train Leaving Grey

Mason Jennings

---------------------Train Leaving Grey by Mason Jennings--------------------

(first 8 bars)
 E
    Hopin' that I'll see you on  the street...
E--------7----7------------5----4------------4----4-----------4----4------|
B--------5----5------------4----4------------5----5-----------5----5------|
G---4----------------5------------------6----------------7----------------|
D-------------------------------------------------------------------------|
A-------------------------------------------------------------------------|
E-------------------------------------------------------------------------|


(second 8 bars)
 AB
Its yourr                   kind of daay...
E--------5----5------------5----5-----------------------------------------|
B--------------------------------------------7----7-----------8----8------|
G--------6----6------------6----6------------8----8-----------8----8------|
D---7----------------7------------------9----------------9----------------|
A-------------------------------------------------------------------------|
E-------------------------------------------------------------------------|


 E
    Nothin has the color of you eyes
 AB
    train leeaving gray
 EAB
and iill never love nooone the way i loved you
 EAB
    ii never thought thaat love could come true
 E
    driving 'round the city in your car
 AB
    down low in the sea
 E
    comin home and gettin into bed
 AB
    smilin in your sleep
 EAB
    iill never love nooone the way i loved you
 EAB
    youu've never loved nooone have you

(play through melody once)
 E
    Hopin that I'll see you on the street
 AB
Its yourr         kind of daay
 E
    Nothin has the color of your eyes
A B (last two notes are plucked slower)
train leaving grey

There are a few parts where Mason improvises around the melody, and I'm not
sure if I have the tempo right. The 'B' can also be played with the high E,
B, and G strings, and looks like this:
 B
E-------2----2---------3----3----------------------------------------------|
B-------4----4---------4----4----------------------------------------------|
G--4--------------4--------------------------------------------------------|
D--------------------------------------------------------------------------|
A--------------------------------------------------------------------------|
E--------------------------------------------------------------------------|


It's hard to hear exactly how Mason plays it, but it's nice to vary how you
go through the melody. This is my first tab; feel free to change or add
corrections. Cheers, and enjoy.

---Mike Wolf---				



A B E
variations - click chord images
Transpose chords:
Tuning:
Cool service:
View: Size:
A  A  A
Rating:
Layout:
  • Currently 4/5 Stars.
  • 1
  • 2
  • 3
  • 4
  • 5
 
Accuracy:
  • Currently 4.5/5 Stars.
  • 1
  • 2
  • 3
  • 4
  • 5
 
click stars to rate
Chordie recommends:
Learn to play guitar with video-based, online guitar lessons at JamPlay.com
Songbook:
Login to add this song to your songbook
Support the artist
Preview/buy this song
MSN Music
Why this non-profit ad?

 
login to add comments/video/corrections