Guitar Tabs, Chords and Lyrics


Joseph Merrick   Mastodon



-----------------------------------------------------------------------------
			  Joseph Merrick - Mastodon
-----------------------------------------------------------------------------
Tabbed by: DeathTribble
Email:

Tuning: Standard

Intro/Main Theme
E|---3p2---2--2-------1-1-1-1--1-------------------------------|
B|---3-----3--3-------2-2/3-2--2------3-1--------------3-------|
G|---0-----0--0-------2-2-2-2--2----1------------1---1---1-----|
D|---0-----0----------0-0-0-0----------------------0-------0---|
A|-2-----2--------0-1-----------------------1-2--------------2-|
E|--------------3-----------------1-------4--------------------|

E|----------------------------------------------------0---------------------|
B|-----3-1-------------3--------------------------0-----0-------------4-----|
G|---1-----------1---1---1------7-9-10-12\10----------------------4-----4---|
D|-----------------0-------0------------------7-----7-----7---6-----6-----6-|
A|-----------1-2-------------2--5-7-8--10\8-----8---------------6-----------|
E|-1-------4------------------------------------------------4---------------|

E|------------0-------------------------------|
B|--------0-----0--------------4--------------|
G|-------------------------4-----4------------|
D|-----7----7-----7----6-----6-----6--5-6-8-9-|
A|-7h8---8---------------6--------------------|
E|-------------------4----------------3-4-6-7-|

Before Solo
E|-2--2-2-2-2-3--3-3-3-3-2--2-2-2-2-3--3-3-3-3-0--0-0-0-2-3-3-3-3-|
B|-3--3-3-3-3-3--3-3-3-3-3--3-3-3-3-3--3-3-3-3-0--0-0-0-2-3-3-3-3-|
G|-4--4-4-4-4-4--4-4-4-4-4--4-4-4-4-4--4-4-4-4-1--1-1-1-3-4-4-4-4-|
D|-4--4-4-4-4-5--5-5-5-5-4--4-4-4-4-5--5-5-5-5-2--2-2-2-4-5-5-5-5-|
A|-2--2-2-2-2-5--5-5-5-5-2--2-2-2-2-5--5-5-5-5-2--2-2-2-4-5-5-5-5-|
E|------------3--3-3-3-3------------3--3-3-3-3-0--0-0-0-2-3-3-3-3-|

E|-1--1-1-1-1-1--1-1-1-1-1--1-1-1-1-1--1-1-1-1--0--0-0-0-2-3-3-3-3-3-|
B|-3--3-3-3-3-2--2-2-2-2-3--3-3-3-3-2--2-2-2-2--0--0-0-0-2-3-3-3-3-3-|
G|-2--2-2-2-2-2--2-2-2-2-2--2-2-2-2-2--2-2-2-2--1--1-1-1-3-4-4-4-4-4-|
D|-0--0-0-0-0-0--0-0-0-0-0--0-0-0-0-0--0-0-0-0--2--2-2-2-4-5-5-5-5-5-|
A|----------------------------------------------2--2-2-2-4-5-5-5-5-5-|
E|----------------------------------------------0--0-0-0-2-3-3-3-3-3-|

I don't know the solo backing.

Fill after solo
E|--------------------------------|
B|--------------------------------|
G|--------------------------------|
D|-------------------2----2h4-2h4-|
A|-------2-----2-3-5---3-5--------|
E|-2-3-5---3-5--------------------|

| /  slide up
| \  slide down
| h  hammer-on
| p  pull-off
| ~  vibrato
| +  harmonic
| x  Mute note
=============================================================================


Important: The song above is NOT stored on the Chordie server. The original song is hosted at www.guitaretab.com. Chordie works as a search engine and provides on-the-fly formatting. Chordie does not index songs against artists/composers will. To remove this song please click here.

This song is displayed as text-only. Transposing and tuning is only available for chordpro-songs.

Login - add to songbook

Rating click stars to rate

Layout
Accuracy

SHARE PAGE  




You need to log in to post comments