3 Am Acoustic

Matchbox 20

Intro--

G x 4 Cadd9 G x 4 Cadd9
e|---3----------3------------------3----------3---------3------------|
B|---3----------3------------------3----------3------------3---------|
G|---0----------0----------0-------0----------0---------------0------|
D|---0----------2------------------0----------2----------------------|
A|---2----------3-----0h3----------2----------3----------------------|
E|---3----------0------------------3----------0----------------------|

When you make the change from G to Cadd9, make a hammer on with the index and middle fingers.

Verses

Play these two Then play this...
chords twice.
 GCadd9DCadd9
e|--3--------3-----------------0h2-----------------------------------|
B|--3--------3----------------------3----------------3--3------------|
G|--0--------0-------------------------2-------------------0---------|
D|--0--------2--------0h2--0-------------0---------2-----------0-----|
A|--2--------3---0h3--------------------------0h3--------------------|
E|--3--------0-------------------------------------------------------|

Its cold outside but she...

Bridge
 DCadd9GCadd9
e|---0h2-------------------------------------0h3--------------3------|
B|-------3-------------3--3---------------3------3--------3-----3----|
G|---------2----------------0-----------0----------0--------0-----0--|
D|-----------0-------2--------0-------------------------------------0|
A|---------------0h3---------------2------------------3--------------|
E|-------------------------------------------------------------------|

And she only sleeps.... And she screams and her voice...

Chorus
 GDCadd9
e|------------3------------2--------------3--------------------------|
B|------------3------------3--------------3--------------------------|
G|------------0------------2--------------0--------------------------|
D|------------0------------0--------------2--------------------------|
A|------------2------------x--------------3--------------------------|
E|------------3------------x--------------0------------------------...She says baby


Here are the lyrics for the song:

Intro

Verse#1

She say it's cold outside and she hands me my raincoat
She's always worried about things like that
She says it's all gonna end and it might as well be my fault

Bridge
And she only sleeps when it's raining
And she screams and her voice is straining

Chorus
She says baby
It's 3 am I must be lonely
When she says baby
Well I can't help but be scared of it all sometimes
Says the rain's gonna wash away I believe it

Verse#2
She's got a little bit of something, God it's better than nothing
And in her color portrait world she believes that she's got it all
She swears the moon don't hang quite as high as it used to

Bridge
And she only sleeps when it's raining
And she screams and her voice is straining

Chorus

Verse#3
She believes that life is made up of all that you're used to
And the clock on the wall has been stuck at three for days, and days
She thinks that happiness is a mat that sits on her doorway
But outside it's stopped raining

Tabbed by: Gabriel Zambrano


Cadd9 D G
variations - click chord images
Transpose chords:
Tuning:
Cool service:
View: Size:
A  A  A
Rating:
Layout:
  • Currently 3.8/5 Stars.
  • 1
  • 2
  • 3
  • 4
  • 5
 
Accuracy:
  • Currently 3.7/5 Stars.
  • 1
  • 2
  • 3
  • 4
  • 5
 
click stars to rate
Chordie recommends:
Learn to play songs at Jamplay.com with video guitar lessons
Songbook:
Login to add this song to your songbook
Support the artist
Preview/buy this song
MSN Music
Why this non-profit ad?

 
login to add comments/video/corrections