Guitar Tabs, Chords and Lyrics


All I Need  Matchbox 20

----------------------------------------------------------------------------



----------------------------------------------------------------------------

e|--------------------------|
B|-----0-----0--------------|
G|-0h2---2-0---0--------(x8)|
D|---------------0----------|
A|--------------------------|
E|--------------------------|
[G]Everywhere someone's getting over, e[Em]verybody cries and sometimes,
[Am]you can still lose even if y[C]ou really t[D]ry.
e|-3h5h3-2-0-----------2----------|
B|-----------3h1h3-1-3------------|
G|--------------------------------|
D|--------------------------------|
A|--------------------------------|
E|--------------------------------|

[G]Talkin''bout the dream like the dream is over,
[Em]talk like that won't get you nowhere,
[Am]Everybody's trusting in the h[C]eart like the heart don't l[D]ie.

Chorus:
[G]But that's all t[B]hat I n[Em]eed, [C](yeah)  [G]someone e[B]lse to cl[Em]ing t[C]o,
[G]Someone I[B] can le[Em]an on [C]until, I[Am] don't ne[D]ed to.
[G]Just stay all through the ni[B]ght and in the mor[Em]ning let me do[C]wn.
[G]'cause that's all th[B]at I [Em]need ri[C]ght now.  [G]  [C]  [D----]

Verse 2:

Everywhere someone's getting over, everybody's lied to someone,
People still use other people with a crooked smile.
e|-3h5h3-2-0-----------2----------|
B|-----------3h1h3-1-3------------|
G|--------------------------------|
D|--------------------------------|
A|--------------------------------|
E|--------------------------------|

And all around the world there's a sinking feeling
Out there right now someone's really down on themselves and don't know why... oh why

chorus

bridge:

[Cm]and life ain't no beaut[Bm]y show, we don't know where tomorro[Am]w ends
[D]And when we're sad (when we[Am]'re sad)  It's kind of a[D] drag  Oh yeah

Solo:

e|----------------------------------------------------------------|
B|----------------8-10-10(bend 1/2 step)-10-8---------------------|
G|-7(x3)-8(x3)-9-------------------------------9--7(x3)-8(x3)-9---|
D|----------------------------------------------------------------|
A|----------------------------------------------------------------|
E|----------------------------------------------------------------|
e|---------------------------10-----10-11-11(bend 1/2 step)-------|
B|-8-10-10(bend 1/2 step)-10----10--------------------------------|
G|----------------------------------------------------------------|
D|----------------------------------------------------------------|
A|----------------------------------------------------------------|
E|----------------------------------------------------------------|
e|--12-10---------------------------------------------------------|
B|--------12-10---------------------------------------------------|
G|--------------12--12h14h12-12h14h12-12h14h12--------------------|
D|----------------------------------------------------------------|
A|----------------------------------------------------------------|
E|----------------------------------------------------------------|


Chorus:

Just stay all through the night and in the morning let me do-ooo--own
yeah 'cause that's all that I need, yeah, that's all that I need yeah,
That's all that I need right now. G C D
right now.

intro riff x6


| / slide up
| \ slide down
| h hammer-on
| p pull-off
| ~ vibrato
| + harmonic
| x Mute note
============================================================================

Important: The song above is NOT stored on the Chordie server. The original song is hosted at www.guitaretab.com. Chordie works as a search engine and provides on-the-fly formatting. Chordie does not index songs against artists'/composers' will. To remove this song please click here.

Text color:
Chord color:
Chord grids: 
Font size:    
Page size: 

Am B Bm C Cm D Em G
variations - click chord images

Login - add to songbook

Transpose chords

Tuning

Rating click stars to rate

Layout
Accuracy

SHARE PAGE  




You need to log in to post comments