Guitar Tabs, Chords and Lyrics


Qui De Nous Deux   Mathieu Chedid



-------------------------------------------------------------------------------
			     Qui de nous deux? - M
-------------------------------------------------------------------------------
Tabbed by:HiPpIe dUdE
Email:besilix@hotmail.com

Tuning:Standard

the chords r practically played da same throughout da 
song except when he plays it on da piano,but u can keep on playin it on da guitar.

Intro

e|---3----1--3s6|-0-1--3-3---1--3-3|-3--1--3s8-6|-0-1--3-3---1--3-3--------|
B|-------------------------------------------------------------------------|
G|-------------------------------------------------------------------------|
D|-------------------------------------------------------------------------|
A|-------------------------------------------------------------------------|
E|-------------------------------------------------------------------------|


Verse/Chorus (play da intro with another guitar during da chorus)

    Cm        G5         F         Cm
e|---3---------3---------1----------8--------------------------------------|
B|---4---------3---------1----------8--------------------------------------|
G|---5---------3---------2----------8--------------------------------------|
D|---5---------5---------3----------9--------------------------------------|
A|---3---------5---------3----------9--------------------------------------|


Important: The song above is NOT stored on the Chordie server. The original song is hosted at www.guitaretab.com. Chordie works as a search engine and provides on-the-fly formatting. Chordie does not index songs against artists'/composers' will. To remove this song please click here.

This song is displayed as text-only. Transposing and tuning is only available for chordpro-songs.

Login - add to songbook

Rating click stars to rate

Layout
Accuracy

SHARE PAGE  




You need to log in to post comments