Guitar Tabs, Chords and Lyrics


Halloween   Matt Pond Pa



Halloween - Matt Pond
Several Arrows Later

2 guitars
Standard tuning
Guitar 1-Brian Pearl
Guitar 2-Matt Pond

LIVE VERSION.


Intro(x2) - guitar 1 only.
e|--------0-----------------|
B|-------------0------------|
G|-----1----1----1-1-1------|
D|--1-2-2----2----2-2-------|
A|-2------------------------|
E|--------------------------|


Verse 1(x2) - Guitar 1 only.
e|------------------------|
B|-----0-------0----------|
G|---1---1-1-1---1-1------|
D|--2-2---2-2-2---2-------|
A|------------------------|
E|------------------------|

e|------------------------|
B|-----2-0-----2-0--------|
G|---1-----1-1-----1------|
D|--1-1---1-1-1---1-------|
A|------------------------|
E|------------------------|

e|------------------------|
B|-----0-------0----------|
G|---2---2-2-2---2-2------|
D|------------------------|
A|--0-0---0-0-0---0-------|
E|------------------------|

e|------------------------|
B|-----2-0-----2-0--------|
G|------------------------|
D|---1-----1-1------1-----|
A|--2-2---2-2-2----2------|
E|------------------------|


Intro to Verse 2(x1) - Guitar 1:

e|----7----------------9-7---------|
B|--9--9-9-9-9--9-9--9-----9-9-9-9-|
G|-9-9--9-9-9--8-8--9-9---9-9-8-8--|
D|---------------------------------|
A|---------------------------------|
E|---------------------------------|

(he adds the random slide from 8 to 9)


Verse 2 Part 1(x1) - Guitar 1:
e|--------------------|
B|--9-9-9-9-9-9-9-9---|
G|-9-9-9-9-9-9-9-9----|
D|--------------------|
A|--------------------|
E|--------------------|

e|--------------------|
B|--9-9-9-9-9-9-9-9---|
G|-8-8-8-8-8-8-8-8----|
D|--------------------|
A|--------------------|
E|--------------------|

e|--------------------|
B|--5-5-5-5-5-5-5-5---|
G|-6-6-6-6-6-6-6-6----|
D|--------------------|
A|--------------------|
E|--------------------|

e|--------------------|
B|--7-7-7-7-7-7-7-7---|
G|-8-8-8-8-8-8-8-8----|
D|--------------------|
A|--------------------|
E|--------------------|

Verse 2 Part 2(x1) Guitar 1:

e|----7------7--------|
B|--9--9-9-9--9-9-----|
G|-9-9--9-9-9--9------|
D|--------------------|
A|--------------------|
E|--------------------|

e|----9-7-----7-------|
B|--9-----9-9--9-9----|
G|-8-8---8-8-8--8-----|
D|--------------------|
A|--------------------|
E|--------------------|

e|----7-4-----4-------|
B|--5-----5-5--5-5----|
G|-6-6---6-6-6--6-----|
D|--------------------|
A|--------------------|
E|--------------------|

e|----9-7-----7-------|
B|--7-----7-7--7-7----|
G|-8-8---8-8-8--8-----|
D|--------------------|
A|--------------------|
E|--------------------|

Chorus(x8) Guitar 1:

e|---7----9-7---|
B|--9-9--9---9--|
G|-9----8-------|
D|--------------|
A|--------------|
E|--------------|

Post Chorus 1(x1) Guitar 1:

e|------------------9~---10~--12~--14~--|
B|-5~--7~--9~--12~--10~--12~--14~--16~--|
G|-6~--8~--9~--13~--11~--13~--14~--16~--|
D|--------------------------------------|
A|--------------------------------------|
E|--------------------------------------|

Play Intro to Verse 2(x2)
Play Verse 2 Part 1(x1)
Play Chorus(x8)

Post Chorus 2(x1) Guitar 1:

e|------------------9~---10~--12~--14~---14---|
B|-5~--7~--9~--12~--10~--12~--14~--16~----16--|
G|-6~--8~--9~--13~--11~--13~--14~--16~-16--16-|
D|--------------------------------------------|
A|--------------------------------------------|
E|--------------------------------------------|

Outro 1(x4) Guitar 1:       

e|-----12--------------------|--12~--|
B|---12--12-12-12-12-12-12---|--12~--|
G|-13-13--13-13-13-14-14-----|--13~--|end on
D|---------------------------|-------|

Important: The song above is NOT stored on the Chordie server. The original song is hosted at www.guitaretab.com. Chordie works as a search engine and provides on-the-fly formatting. Chordie does not index songs against artists'/composers' will. To remove this song please click here.

This song is displayed as text-only. Transposing and tuning is only available for chordpro-songs.

Login - add to songbook

Rating click stars to rate

Layout
Accuracy

SHARE PAGE  




You need to log in to post comments