New Kehoe Nj

Matt Pond Pa

E    --X-7-9-9-X-X--|
E/D# --x-6-9-9-X-X--|
B5   --X-2-4-4-X-X--|
A5   --X-0-2-2-X-X--|
A    --5-7-7-6-5-5--|
B    --7-9-9-8-7-7--|


E -------------------4-2-0-------------2/4-2-0-2-0---0-|
B -4-2-0-4-2-0-4-2-0-------4-2-0-4-2-0-------------4---|
G -----------------------------------------------------|
D -----------------------------------------------------|
A -----------------------------------------------------|
E -----------------------------------------------------|
E -----2-0---5-4-2-7b--11-9-7-9-7-9-11-9-7-5-4-2-0-|
B -4-2-----4---------------------------------------|
G -------------------------------------------------|
D -------------------------------------------------|
A -------------------------------------------------|
E -------------------------------------------------|


   (the words are made with magnets)
the words are made with magnets
   (speaking simple information)
speaking simple information
   (with the consequences open)
with the consequences open
   (there is nothing more to hear )
there is nothing more to hear


( A A A B B B ) x4

(1:02) ( Palm muted )

by the end the car was making
noises that made more sense than
a signal in plain view
exaggerated lines for eyes
 in between the shakes and clicks
is less than half a second which
is more time than is used
to build upon the engines effort

( Ends with A5 )

A A5 B B5 D E G
variations - click chord images
Transpose chords:
Cool service:
View: Size:
A  A  A
  • Currently 3/5 Stars.
  • 1
  • 2
  • 3
  • 4
  • 5
  • Currently 2.5/5 Stars.
  • 1
  • 2
  • 3
  • 4
  • 5
click stars to rate
Login to add this song to your songbook
IMPORTANT: The song above is NOT stored on the Chordie server. The original song is hosted at Chordie works as a search engine and provides on-the-fly formating. Chordie does not index songs against artists/composers will. To remove this song please click here.

login to add comments/video/corrections