Chordie logo


Giant   Matthew Good Band



Song: Giant
Band: Matthew Good Band
Tabbed by: Aaron 

(my favourite song)
contact me to complain or correct me, OR just to tell me i'm damn good!
ICQ# 38833906
e-mail: low-down@home.com


tune half-step down

  ^   means bend(to me)
 (0)  means to switch notes with (0( and listen for the change to see what i
mean

Listen to the song for details of repititions and timing and struming patterns
especially when i leave a   ******** on a section.

all relative to tuning

e|-----
b|-----
g|-2---    X4 Times
d|-2--2
a|-0--2
e|----0

		Verse:
Bar 1
e|-------2---0--------------------2---0--4---4---5(0)-|
b|-0-0-0---0---2^-0-2^-0----0-0-0---0------0---0------|
g|----------------------------------------------------|
d|----------------------------------------------------|
a|----------------------------------------------------|
e|----------------------------------------------------|
Bar 2
e|-------2---0------------------2---0-0-0-0-0-0---------|
b|-0-0-0---0---2^-0-2^-0--0-0-0---0---3-3-3-2-0---------|        repeat the 2 bars 3Xs(the
verse!)
g|---------------------------------------------|
d|---------------------------------------------|
a|---------------------------------------------|
e|---------------------------------------------|

                Filler(if thats what ya call it):

e|---------------|
b|---------------|
g|-----2-------7-|   *********     repeat 2Xs
d|-4---2---2---7-|
a|-4---0---2---5-|
e|-2-------0-----|

     Verse! again: its up top

     Chorus:

e|----------------------------|
b|----------------------------|
g|-------------2-----2--------|   repeat 2Xs  *********
d|-2-----4-----0-----2-----2--|
a|-2-----4-----0-----0-----2--|
e|-0-----2-----------------0--|

After the chorus you start with bar 2 of the verse and keep repeating
normally(use the (0) !!!).



Important: The song above is NOT stored on the Chordie server. The original song is hosted at www.guitaretab.com. Chordie works as a search engine and provides on-the-fly formatting. Chordie does not index songs against artists/composers will. To remove this song please click here.

This song is displayed as text-only. Transposing and tuning is only available for chordpro-songs.

Login - add to songbook

Rating click stars to rate

Layout
Accuracy

SHARE PAGE  




You need to log in to post comments