Guitar Tabs, Chords and Lyrics


Born To Kill   Matthew Good Band



Born To Kill
Matthew Good Band

Words by matt good, music by matt good and dave genn.  copyright 1999 emi music....yada yada.

tabbed by Greg Dmochowksi

hey all,

this is (IMO) the best song MGB has put out to date.  the ending to this is fucking amazing!
its pretty easy to play, and didnt take too long to tab.  

tuning is half step down like most of the album.  

chords:

	E  (x79900)
	C  (x35500)
	Am (577555)
	D  (x57700)

GUITAR 1
---------

Verses:  E, C, Am  (just play that progression over and over)

Chorus (when matt sings, "its more than the less...."):  C, Am, E, D (repeat that as necessary
and end on C)

and thats it as far as matt's part goes.  for the outro, i find playing the verse progression 
over and over works well.  however, towards the end you cant really tell!



GUITAR 2
---------

Dave comes in with some really cool distorted, tremolo effect during the verses with the same 
chords as matt.  then after the first chorus (i think...i dont have my cd handy) he goes into:


|-0------------------------------|		
|-------0-------0-1----1-0-------| 
|---0-2---2-0-2-------------2-0--|			
|--------------------------------|
|--------------------------------|
|--------------------------------|

repeat that twice then the third time play

|-0------------------------------|
|-------0-------0-1-----3-----5--|
|---0-2---2-0-2-------0----0-----|
|--------------------------------|
|--------------------------------|
|--------------------------------|


Then repeat that whole thing twice.  Also, during the 2nd chorus, dave plays some picking part 
which is too subtle for me to tab out.  

all the above stuff should do it until the outro.  after the last chorus, Matt goes into verse
chords till the end.  Dave, on the other hand, goes wild. i didnt bother tabbing the entire thing 
cuz its pretty useless.  just go nuts.  what i've included is the beginning of the outro- dave's 
guitar and the strings.  

Dave at the beggining of the outro (just strike each chord once):

|---|---|-------|---|---|---------|----|----|---------|----|----|----------|
|---|---|-------|---|---|---------|----|----|---------|----|----|-19---20--|
|-4-|-5-|-6---7-|-8-|-9-|-11--12--|-14-|-15-|-16---17-|-19-|-20-|----------|
|---|---|-------|---|---|---------|----|----|---------|----|----|-16---17--|
|-2-|-3-|-4---5-|-6-|-7-|-9---10--|-12-|-13-|-14---15-|-17-|-18-|----------|
|---|---|-------|---|---|---------|----|----|---------|----|----|----------|

and here at the strings:

|------5-7-----5-7------3-5-----3-5-----0-3-0-3-0------|
|--5-8-----5-8------3-5-----3-5-----2-3-----------3----|
|------------------------------------------------------|
|------------------------------------------------------|
|------------------------------------------------------|
|------------------------------------------------------|

the rest of the song is pretty much all those parts mixed together.  there yuo have it.
corrections, comments, etc email me at sixbladeknife@mindless.com




Important: The song above is NOT stored on the Chordie server. The original song is hosted at www.guitaretab.com. Chordie works as a search engine and provides on-the-fly formatting. Chordie does not index songs against artists'/composers' will. To remove this song please click here.

This song is displayed as text-only. Transposing and tuning is only available for chordpro-songs.

Login - add to songbook

Rating click stars to rate

Layout
Accuracy

SHARE PAGE  




You need to log in to post comments