""; ?> A Boy And His Machine Gun by Matthew Good Band - guitar chords, guitar tabs and lyrics - chordie

A Boy And His Machine Gun

Matthew Good Band

e-------------------------------|

b------------2-----------2------|
g------4--------4--3------------|
d---------4-----------4---------|
a-------------------------------|
e-------------------------------|
e----5---------5------------5---------5---------------0--------------------------|
b-----4---0h4---4----0h4-----4----4----4---0h4--2---4---4---4--------------------|
g-------4----------4------------4---------4-------4-------4--4-------------------|
d--------------------------------------------------------------------------------|
a--------------------------------------------------------------------------------|
e--------------------------------------------------------------------------------|
e-----0-----------------0-----------|
b----0-0-2-0----4-0----5-5----------|
g---1---3---3-4-----4-6-------------|
d-----------------------------------|
a-----------------------------------|
e-----------------------------------|

 2nd guitar plays RIFF #1

 A#AA#A
 don't move, stay right where you are

 A#AA#A
 talking can only give you away 

 Riff #2 plays
 D#Bm
           so nothing to say    

 Riff #1 plays

 A#A
 the voices say hello    

 A#A
 imprisoned, they're invisible

 Riff #2 plays

 D#Bm
 but we look a lot alike  

[Riff #1 plays}

 A#A
 this is boring, all we talk about is you

 A#A
 come on give me a reason

 Riff #2

 D#Bm
 a boy and his machine gun

 D#BmGmF
 when you're finished stuggling

 D#BmGmF
 are you free tonight?

 D#BmGmF
 did they stick you in here

 D#BmGmF
 cause you weren't working right? 

 Riff #1

 A#A
 don't move stay just like you are
 Riff #2
 A#AD#
you look sane motionless like that           

 Bm
so very flat

 Riff #1
 A#A
 it's amazingn what velocity can do 

 A#A
 when human beings are in season      

 Riff #2

 D#Bm
 a boy and his machine gun

 D#Bm
 if you're quiet we might see some

 D#BmGmF
 when you're finished struggling

 D#BmGmF
 are you free tonight?          

 D#BmGmF
 did they stick you in here cause you weren't working right?

 D#BmGmF
 there's a TV in heaven

 D#BmGmF
 and it's free even pay-per-view

 D#BmGmF
 which you'll need if no one's going to visit you    
 fucking animal
Animal,  

 Riff #3
 -till end
i know who you're waiting for

no one's coming though

[ D# B  Gm F]-till end
so fuck you and your principals
and fuck whatever made me
perhaps you think i'm evil
perhaps you think i'm crazy


A A# Bm D# F Gm
variations - click chord images
Transpose chords:
Tuning:
Cool service:
View: Size:
A  A  A
Rating:
Layout:
  • Currently 1.2/5 Stars.
  • 1
  • 2
  • 3
  • 4
  • 5
 
Accuracy:
  • Currently 1.2/5 Stars.
  • 1
  • 2
  • 3
  • 4
  • 5
 
click stars to rate
Chordie recommends:
Get acoustic guitar lessons and electric guitar lessons at JamPlay.com
Songbook:
Login to add this song to your songbook
Support the artist
Preview/buy this song
MSN Music
Why this non-profit ad?

 
login to add comments/video/corrections