Guitar Tabs, Chords and Lyrics


Casual Walks   Matthew Good Band



Casual Walks Tab - by dantheman7_8

Artist: Matthew Good Band
Song: Casual Walks
Album: Left of Normal
Tuning: eBGDAE     G Half-step drop tuning

      (Tune G string down so its 5th fret tunes with the B open string)

Tabbed by: dantheman7_8 ---- Comments or requests to
dantheman7_8@hotmail.com
 
Intro:
e||-------------------------------------------------||
B||------------------------------------2------------||
G||----2------2------2-----2-----2------------2-----||
D||----------------------------------3----3h4----3--||      X1
A||-4----4-4-----4-4---4-4---4-3---1----------------||
E||-------------------------------------------------||

e||----------------------------||
B||----------------------------||
G||-----2-----2------2---------||
D||----------------3---3h4---3-||	 X3
A||--4----4-3----1-------------||
E||----------------------------||

e||----------------------------------------||
B||-2--------------------------------------||
G||-------2-----2-----2------2-------------||
D||---4-4---4-4---4-4---4-4----4-4--4s3-3--||    X1
A||----------------------------------------||
E||----------------------------------------||

Verse:
e||------------------------------------------------------||
B||------------------------------------------------------||
G||---2-----2-----2-----2-----2------2------2-----2------||
D||------------------------------------------------------||
A||-4---4-4---4-4---4-4---4-3---3-3-----3-3---3-3---3----||
E||------------------------------------------------------||             
                               +                               X5
e||------------------------------------------------------||
B||--------2---------------------------2-----------------||
G||---2---------2-----2-----------2--------2------2------||
D||-3---3----3----3-3---3-3---3s4---4----4---4-4----3-3--||    
A||------------------------------------------------------||
E||------------------------------------------------------||

Ending:
e||----------------------------||
B||----------------------------||
G||-----2-----2------2-----2---||
D||----------------3---3h4---3-||	 X4
A||--4----4-3----1-------------||
E||----------------------------||

e||-------------------------------------||
B||-2-----------------------------2-----||
G||-------2------2----------------------||   X1
D||---4-4---4-4----4-4-4s3-3------------||    
A||---------------------------4---------||


Important: The song above is NOT stored on the Chordie server. The original song is hosted at www.guitaretab.com. Chordie works as a search engine and provides on-the-fly formatting. Chordie does not index songs against artists'/composers' will. To remove this song please click here.

This song is displayed as text-only. Transposing and tuning is only available for chordpro-songs.

Login - add to songbook

Rating click stars to rate

Layout
Accuracy

SHARE PAGE  




You need to log in to post comments