Bright End Of Nowhere

Matthew Good

E-------------------------14-----------14----------|

B------------------------------12----------12------|
G--14b16---12---12---------------------------------|
D--------------------------------------------------|
A--------------------------------------------------|
E--------------------------------------------------|

 G
 Here's the Bright End of Nowhere, here's the results of all our days

 G
 Used to lay on the roof and drink beer, And try and count up all the
 EmCG
 Ways, That you could waste away               
 EmCG
 Looking back it seemed so simple, but having done it I couldn't say   

 GG/F#
 EmGCGG/F#
 The lights are out baby, And I'm a mouse,

 EmGCGG/F#
 The lights are out baby, so here me out,

 EmGCGG/F#
 The lights are out baby, And I'm a mouse,

 EmGCG
...............................................................

Chorus lead:
E-----------------------------3-----3-----|
B---------------------------3--3-----3----|
G----------2s5-4-2-0--0------0------------|
D-----------------------------------------|
A -0-2-3----------------------------------|
E-----------------------------------------|


...............................................................
 G
 So Here's the Bright End of Nowhere, here's the commercial of all our days

 G
 Go on vacations and drink beer, And try and forget all the
 EmC
 Ways, We let ourselves get away, 
 EmCG
Looking back it seemed so simple, but having done it I couldn't say   

 GG/F#

 EmGCGG/F#
 The lights are out baby, And I'm a mouse,

 EmGCGG/F#
 The lights are out baby, so here me out,

 EmGCGG/F#
 The lights are out baby, And I'm a mouse,

Em G C Em G C Em G C G


C Em G G/F#
variations - click chord images
Transpose chords:
Tuning:
Cool service:
View: Size:
A  A  A
Rating:
Layout:
  • Currently 3/5 Stars.
  • 1
  • 2
  • 3
  • 4
  • 5
 
Accuracy:
  • Currently 2.5/5 Stars.
  • 1
  • 2
  • 3
  • 4
  • 5
 
click stars to rate
Chordie recommends:
Check out JamPlay.com for online video guitar lessons
Songbook:
Login to add this song to your songbook
Support the artist
Preview/buy this song
MSN Music
Why this non-profit ad?

 
login to add comments/video/corrections