Nothing Lasts

Matthew Sweet

|----------------|----------------|----3-----3-----|1---------------|

|1---1---0-1-3-1-|----1-0-0-1-3-1-|0---3-----3-----|1---------------|
|0---0---0-0-0-0-|----0-0-0-0-0-0-|0-0-0---0-0-----|2---------------|
|2---2---2---2---|----2---2---2---|0-0-----0-------|3---3-3-3-3-3-3-|
|3---------------|0-0-------------|--2-------------|3---3-3-3-3-3-3-|
|----------------|----------------|----------------|1---1-1-1-1-1-1-|
|----------------|----------------|----3-----3-----|1---------------|
|1---1-0-0-1-3-1-|----1-0-0-1-3-1-|0---3-----3-----|1---------------|
|0---0-0-0-0-0-0-|----0-0-0-0-0-0-|0-0-0---0-0-----|2---------------|
|2---2---2---2---|----2---2---2---|0-0-----0-0-----|3---------------|
|3---------------|0-0-------------|--2-------2-----|3---------------|
|----------------|----------------|----------3-----|1---------------|

 C
 Stop time, or make it up
 FC
If two could realize the best of luck  
 EmF
If I could locate a god above
 GAm
And you only wanted to be loved 
 DmC
Then I'd try to hang on to the past  
 FG
But you know that nothing, oh no nothing lasts

(Play fig.1)
Nothing lasts .....It's time to

 C
 Move on, let the past go
 FC
I waited for you here, but you never showed  
 EmF
Although I asked you to let me know 
 GAm
I only felt a cold wind blow 
 DmC
While I tried to hang on to the past 
 FG
But you know that nothing, oh no nothing lasts

(Play first four measures of fig. 1)

 AmC
 Nothing's in your way
 FG
Now you can stand right up and run         
 AmC
 Wouldn't even change things
 FAm
If you took back what you've done
 DmC
I have tried to hang on to the past  
 FG
But I couldn't keep my grasp, cause nothing lasts

(Play the first four measures of fig.1 3X)
Nothing lasts

(Play four measures of C, and end on Cmaj7)
Nothing lasts


Am C Dm Em F G
variations - click chord images
Transpose chords:
Tuning:
Cool service:
View: Size:
A  A  A
Rating:
Layout:
  • Currently 2/5 Stars.
  • 1
  • 2
  • 3
  • 4
  • 5
 
Accuracy:
  • Currently 2/5 Stars.
  • 1
  • 2
  • 3
  • 4
  • 5
 
click stars to rate
Chordie recommends:
Learn how to play guitar at JamPlay.com
Songbook:
Login to add this song to your songbook
Support the artist
Preview/buy this song
MSN Music
Why this non-profit ad?

 
login to add comments/video/corrections