Chordie logo

When I Cant Hear You   Matthew West



Here is When I Can't Hear You by Matthew West.  
s=slide 

Intro:
   
e|------------------|     |---------|
b|------------------|     |---------|
g|-4--4----4s9-9-9--|     |-6-6-6---|
D|-4--4----4s9-9-9--| 3x  |-6-6-6---|   Whole thing 2x
A|-2--2----2s7-7-7--|     |-4-4-4---|
E|------------------|     |---------|
      (Once Muted or something and the other normal overdriven guitar)

Verse:
e|------------------|     
b|------------------|     
g|-4--4----4s9-9-9--|  
D|-4--4----4s9-9-9--|   8x
A|-2--2----2s7-7-7--|
E|------------------|

Then a Bass Solo:

G|------------------------------------------------|
D|------------------------------------------------|
A|3-3-3-3-3-3-3-3-2-2-2-2-2-2-2-2-0-0-0-0-0-0-0-0-|
E|------------------------------------------------|

Then a Guitar Chord:

e|-----|
b|-----|
g|--9--|
D|--9--|
A|--7--|
E|-----|

Chorus:

e|------------------|     |---------|
b|------------------|     |---------|
g|-4--4----4s9-9-9--|     |-6-6-6---|
D|-4--4----4s9-9-9--| 3x  |-6-6-6---|   Whole thing 2x
A|-2--2----2s7-7-7--|     |-4-4-4---|
E|------------------|     |---------|


Song:
Intro-listen to song to get right timings
Verse
Chorus
Verse
Bridge-Really haven't figured out whats going on there 


Important: The song above is NOT stored on the Chordie server. The original song is hosted at www.guitaretab.com. Chordie works as a search engine and provides on-the-fly formatting. Chordie does not index songs against artists/composers will. To remove this song please click here.

This song is displayed as text-only. Transposing and tuning is only available for chordpro-songs.

Login - add to songbook

Rating click stars to rate

Layout
Accuracy

SHARE PAGE  

You need to log in to post comments