Guitar Tabs, Chords and Lyrics


Apply Some Pressure   Maximo Park



Tabbed by:Vincent Oude Lansink
Email:v_oude_lansink@hotmail.com

Tuning:
intro:                               Break:
e|--5---2------------------------/----2---2---3333-------------------------|
B|----------2----5-----3----2----/----3---2---3333-------------------------|
G|---------------------2----2----/----4---3---4444-------------------------|
D|---------------------0----2----/----4---4---5555-------------------------|
A|--------------------------0----/----2---4---5555-------------------------|
E|-------------------------------/--------2---3333-------------------------|

verse                 Chorus
e|--2---2---0------\----2-----------------7----------------------------|
B|--3---3---2------\----2---6---4-----9---7----------------------------|
G|--4---2---2------\----3---6---4-----9---8----------------------------|
D|--4---0---2------\----4---6---4-----9---9----------------------------|
A|--2-------0------\----4---4---2-----7---9----------------------------|
E|-----------------\----2-----------------7----------------------------|

Play this twice, then begins the second part of the song with the quite part

G|---------6---------6-------------6------------|
D|-------4---4-----4---6--------4-----4---------|
A|-----5---------5--------5--7------------------|
E|----------------------------------------------|

Play this four times

Then begin the outro with this break

e|-------------------------|
B|-------------------------|
G|--6-6-666----------------|
D|--4-4-444----------------|
A|--7-7-777----------------|
E|-------------------------|

The 'start all over again'/outro part:
e|---7----5----5---------------------------------------------------|
B|---7----7----5----9----------------------------------------------|
G|---7----7----6----9----------------------------------------------|
D|---9----7----7----9----------------------------------------------|
A|---9----5----7----7----------------------------------------------|
E|---7---------5---------------------------------------------------|

then repeat the quite part, the break and the outro

End with

e|--2---2---0----\---2--2--3333------------------------------------|
B|--3---3---2----\---3--2--3333------------------------------------|
G|--4---2---2----\---4--3--4444------------------------------------|
D|--4---0---2----\---4--4--5555------------------------------------|
A|--2-------0----\---2--4--5555------------------------------------|


Important: The song above is NOT stored on the Chordie server. The original song is hosted at www.guitaretab.com. Chordie works as a search engine and provides on-the-fly formatting. Chordie does not index songs against artists'/composers' will. To remove this song please click here.

This song is displayed as text-only. Transposing and tuning is only available for chordpro-songs.

Login - add to songbook

Rating click stars to rate

Layout
Accuracy

SHARE PAGE  




You need to log in to post comments