Chordie logo


The Mind Of A Grimes   Maylene and The Sons Of Disaster



----------------------------------------------------------------------------
	     The Mind Of A Grimes - Maylene & The Sons Of Disaster
----------------------------------------------------------------------------
Tabbed by:Steve (rockonmetal83)
Email:therabbit99999@yahoo.com

Tuning: Drop D (D A D G B E)
    

0:01-0:15                         x8 (after 4 times stop palm muting)
e|----------------------------------|
B|----------------------------------|
G|----------------------------------|
D|----------------------------------|
A|----------------------------------|
D|-5p0-0-0-0-0-5p0-0-0-0-0-6p0-0-0--|
P.M    . . . .     . . . .     . .

0:15-0:36                  x6
e|---------------------------|
B|---------------------------|
G|---------------------------|
D|-33--0-0--33--0-0----------|
A|-33--0-0--33--0-0------3h5-|
D|-33--0-0--33--0-0--33h5----|


Guitar 1
0:36-1:00
e|--------------------|
B|--------------------|
G|--------------------|
D|-5-0000-5-0000-6-00-|
A|--------------------|
D|--------------------|

Guitar 2
0:47-1:00
e|----------------------|
B|----------------------|
G|----------------------|
D|----------------------|
A|-8b-0-0-0-0---0-0-0-0-|
D|-8b-0-0-0-0---0-0-0-0-|
P.M   . . . .   . . . .

Guitar 3
0:47-1:00
e|-------------------|
B|-------------------|
G|-15-12-14----12----|
D|----------15----12-|
A|-------------------|
D|-------------------|


1:01-1:15
e|---------------------|
B|---------------------|
G|---------------------|
D|---------------------|
A|-8b-0-0-0-0--0-0-0-0-|
D|-8b-0-0-0-0--0-0-0-0-|
P.M   . . . .  . . . .

1:15-1:43
e|---------------------------|
B|---------------------------|
G|---------------------------|
D|-----3/5-3-----------------|
A|-0-0-------5-3---3-5-3-----|
D|-0-0-----------5-------5-3-| Add a slight pinch every other time on the F
P.M. .           . 

1:44-1:57
e|----------------------|
B|----------------------|
G|----------------------|
D|----------------------|
A|-0-0---0-0---00000000-|
D|-0-0---0-0---00000000-|
P.M. .   . .   ........


1:58-2:22
e|---------------------------|
B|---------------------------|
G|---------------------------|
D|-----3/5-3-----------------|
A|-0-0-------5-3---3-5-3-----|
D|-0-0-----------5-------5-3-| Add a slight pinch every other time on the F 
P.M. .           . 

2:22-Done.
e|------------|
B|------------|
G|------------|
D|-5---3---0~-|
A|-5---3---0~-|
D|-5---3---0~-|




Important: The song above is NOT stored on the Chordie server. The original song is hosted at www.guitaretab.com. Chordie works as a search engine and provides on-the-fly formatting. Chordie does not index songs against artists/composers will. To remove this song please click here.

This song is displayed as text-only. Transposing and tuning is only available for chordpro-songs.

Login - add to songbook

Rating click stars to rate

Layout
Accuracy

SHARE PAGE  




You need to log in to post comments