Ayaw Mo Na

Mayonnaise

---0-0-----|-0-0------0-0-1--0--|-0-0----------|

---0--0h3--|-0--0h3-3------0--3-|-0--0h3----12+|
---3-------|-3------------------|-3------------|
---3-------|-3------------------|-3------------|
---0-------|-0------------------|-0------------|
-----------|--------------------|--------------|

 AF#mBmE
---0-|  ---0-|  ---0-|  ---0-|
---3-|  ---0-|  ---0-|  ---0-|
---3-|  ---x-|  ---4-|  ---1-|
---3-|  ---4-|  ---4-|  ---2-|
---0-|  ---4-|  ---2-|  ---2-|
-----|  ---2-|  -----|  ---0-|


 AF#m
sana kung ayaw mo na 
 BmE
sabihin mo lang bago ako mawala  

---0-0-----|-0-0------0-0-1--0--|-0-0----------|
---0--0h3--|-0--0h3-3------0--3-|-0--0h3----12+|
---3-------|-3------------------|-3------------|
---3-------|-3------------------|-3------------|
---0-------|-0------------------|-0------------|
-----------|--------------------|--------------|
---0-0-----|-0-0------0-0-1--0--|-0-0----------0------|
---0--0h3--|-0--0h3-3------0--3-|-0--0h3--------0-----|
---3-------|-3------------------|-3--------------1----|
---3-------|-3------------------|-3---------------2---|
---0-------|-0------------------|-0----------------2--|
-----------|--------------------|-------------------0-|

isang araw hinanap ka ngunit wala ka na dito

nagtataka nagwawala ang damdamin ko, talo

---0-|  ---0-|  ---0-|
---3-|  ---0-|  ---0-|
---3-|  ---x-|  ---4-|
---3-|  ---4-|  ---4-|
---0-|  ---4-|  ---2-|
-----|  ---2-|  -----|  

di ko pinilit ito

chorus: play twice;
 AF#mBmE
sana kung ayaw mo na sabihin mo lang bago ako mawala

isang beses sinilip ko ngunit sabi mo wag na

nais kong aminin na ngunit sabi mo tapos na

---0-|  ---0-|  ---0-|
---3-|  ---0-|  ---0-|
---3-|  ---x-|  ---4-|
---3-|  ---4-|  ---4-|
---0-|  ---4-|  ---2-|
-----|  ---2-|  -----|  

di ko pinilit ito

chorus: play twice;
 AF#mBmE
sana kung ayaw mo na sabihin mo lang bago ako mawala

bridge: hindi ako xur dito.("/)
 FC
ibig bang saihin ang lahat nang iyong mga ginagawa
 AB
lahat nito'y sa'yo lamang

 FC
ibig bang saihin ang lahat nang iyong mga ginagawa
 AB
lahat nito'y walang halaga

---0-0-----|-0-0------0-0-1--0--|-0-0----------0------|
---0--0h3--|-0--0h3-3------0--3-|-0--0h3--------0-----|
---3-------|-3------------------|-3--------------1----|
---3-------|-3------------------|-3---------------2---|
---0-------|-0------------------|-0----------------2--|
-----------|--------------------|-------------------0-|


 AF#mBmE
---0-|    ---0-|   ---0-|       ---0-|
---3-|    ---0-|   ---0-|       ---0-|
---3-|    ---x-|   ---4-|       ---1-|
---3-|     --4-|   ---4-|       ---2-|
---0-|    ---4-|   ---2-|       ---2-|
-----|    ---2-|   -----|       ---0-|

isang araw naisip ko na nag-iisa na ako

chorus: play twice;
 AF#mBmE
sana kung ayaw mo na sabihin mo lang bago ako mawala

instrumental:A F#m Bm E x3

 A
---0-|
---3-|
---3-|
---3-|
---0-|
-----|
sana kung............


A B Bm C E F F#m
variations - click chord images
Transpose chords:
Tuning:
Cool service:
View: Size:
A  A  A
Rating:
Layout:
  • Currently 3/5 Stars.
  • 1
  • 2
  • 3
  • 4
  • 5
 
Accuracy:
  • Currently 2/5 Stars.
  • 1
  • 2
  • 3
  • 4
  • 5
 
click stars to rate
Chordie recommends:
Learn to play guitar with video-based, online guitar lessons at JamPlay.com
Songbook:
Login to add this song to your songbook
Support the artist
Preview/buy this song
MSN Music
Why this non-profit ad?

 
login to add comments/video/corrections