Guitar Tabs, Chords and Lyrics


Roseblood   Mazzy Star








Legend
------

 h  = hammer-on
 p  = pull-off
 b  = bend
 r  = bend release
 /  = slide up/down
 = natural harmonic
[5] = artifical harmonic
 ~  = vibrato
 tr = trill

Mazzy Star - Roseblood, tabbed by Professor Galapogos (johnnywettoes@hotmail.com)




chord progression throughout the song - B,Ebm,A,Dbm

off course it's much easier when you see how the chords are arranged


   B  Ebm  A  Dbm
E|-7---6---5---4--------|
B|-7---7---5---5--------|   (with alot of distortion)
G|-8---8---6---6--------|
D|-9---8---7---6--------|
A|-9---6---7---4--------|
E|-7---6---5---4--------|

the riff at 2:04 into the song goes like this-

E|----------------------------------------------------
B|----------------------------------------------------
G|----------------------------------------------------
D|----------------------------------------------------
A|----9--11--9--8----------7--9--7--6-----------------
E|----------------------------------------------------

and repeats again


not sure about the crazy riffs at the end; I think you can just improvise.

this is my first tab


Important: The song above is NOT stored on the Chordie server. The original song is hosted at www.guitaretab.com. Chordie works as a search engine and provides on-the-fly formatting. Chordie does not index songs against artists/composers will. To remove this song please click here.

This song is displayed as text-only. Transposing and tuning is only available for chordpro-songs.

Login - add to songbook

Rating click stars to rate

Layout
Accuracy

SHARE PAGE  




You need to log in to post comments