Download This Song

Mc Lars

 AmFCG

 AmFCG
 La la la la la la la la
 AmFCG
 La la la la la la la la
 AmFCG
 La la la la la la la la

Guitar fill that comes after "La la la la..."

E|--------------|
B|--------------|
G|--0-----------|
D|-----2-----0--|
A|--------3-----|
E|--------------|


1st Verse

 AmF
 It's 2006, the consumer's still pissed
 CG
 Won't take it anymore so I'm writing a list
 AmF
 Don't try to resist this paradigm shift
 CG
 The music revolution cannot be dismissed
 AmF
 $18.98 Iggy Pop CD?
 CG
 What if I can get it from my sister for free?
 AmF
 It's all about marketing Clive Davis, see?
 CG
 If fans buy the shirt then they get the mp3
 AmF
 Music was a product now it is a service
 CG
 Major record labels why are you trying to hurt us?
 AmF
 Epic's up in my face like, “Don't steal our songs Lars,”
 CG
 While Sony sells the burners that are burning CD-R's
 AmF
 So Warner, AmI, hear me clearly
 CG
 Universal Music, update your circuitry
 AmF
 They sue little kids downloading hit songs
 C
 They think that makes sense
 G
 When they know that it's wrong

Bridge

 AmF
 Hey Mr. Record Man
 CG
 The joke's on you
 AmF
 Running your label
 CG
 Like it was 1992
 AmF
 Hey Mr. Record Man,
 CG
 Your systAm can't compete
 AmF
 It's the New Artist Model
 CG
 File transfer complete

Chorus

 AmFCG
 La la la la la la la la Download this song!
 AmFCG
 La la la la la la la la Download this song!
 AmFCG
 La la la la la la la la Download this song!

E|--------------|
B|--------------|
G|--0-----------|
D|-----2-----0--|
A|--------3-----|
E|--------------|


2nd Verse

 AmF
 I know I'm rhyming fast, but the message is clear
 CG
 You don't need a million dollars to launch a career
 AmF
 If your style is unique and you practice what you preach
 CG
 Minor Threat and Jello both have things to teach!
 AmF
 I've got G5 production, concept videos
 CG
 Touring with a laptop, rocking packed shows
 AmF
 The old-school major deal? It makes no sense
 CG
 Indentured servitude, the costs are too immense!
 AmF
 Their finger's in the dam but the crack keeps on growing
 CG
 Can't sell bottled water when it's freely flowing
 AmF
 Record sales slipping, down 8 percent
 CG
 Increased download sales, you can't prevent
 AmF
 Satellite radio and video games
 CG
 Changed the terrain, it will never be same
 AmF
 Did you know in ten years labels won't exist?
 CG
 Goodbye DVD's, and compact disks!

Bridge

 AmF
 Hey Mr. Record Man
 CG
 The joke's on you
 AmF
 Running your label
 CG
 Like it was 1992
 AmF
 Hey Mr. Record Man,
 CG
 Your systAm can't compete
 AmF
 It's the New Artist Model
 CG
 File transfer complete

Chorus
 AmFCG
 La la la la la la la la Download this song!
 AmFCG
 La la la la la la la la Download this song!
 AmFCG
 La la la la la la la la Download this song!

2nd Bridge

E|--------------|
B|--------------|
G|--0-----------|
D|-----2-----0--|
A|--------3-----|
E|--------------|
|----------10-------|
|---------9---------|
|-------9-----------|
|-------------------|
|-------------------|
|-------------------|

You know, we just wanted a level playing field.

|-------------------------------|
|10--8-10-------------8-10--8---|
|-------------------------------|
|-------------------------------|
|-------------------------------|
|-------------------------------|

You've overcharged us for music for years, and now we're

x16
|-----------------------------8----------------8--------------|----|
|------------------------8-10------10--8-10--8----------------|-10-|
|-----------------------------------------------------------8-|----|
|--------------------------------------------------------9----|----|
|-------------------------------------------------------------|----|
|-------------------------------------------------------------|----|

Just trying to find a fair balance. I hate to say it, but…

Welcome to the future.

Chorus

 AmFCG
 La la la la la la la la Download this song!
 AmFCG
 La la la la la la la la Download this song!
 AmFCG
 La la la la la la la la Download this song!

E|--------------|
B|--------------|
G|--0-----------|
D|-----2-----0--|
A|--------3-----|
E|--------------|


Bridge

 AmF
 Hey Mr. Record Man
 CG
 The joke's on you
 AmF
 Running your label
 CG
 Like it was 1992
 AmF
 Hey Mr. Record Man,
 CG
 Your systAm can't compete

E|--------------|
B|--------------|
G|--0-----------|
D|-----2-----0--|
A|--------3-----|
E|--------------|


 AmF
 It's the New Artist Model
 CG
 File transfer complete

Outro

 AmFCG
 La la la la la la la la
 AmFCG
 La la la la la la la la
 AmFCG
 La la la la la la la la

E|--------------|
B|--------------|
G|--0-----------|
D|-----2-----0--|
A|--------3-----|
E|--------------|


 AmFCG
 La la la la la la la la
 AmFCG
 La la la la la la la la
 AmFCG
 La la la la la la la la

E|--------------|
B|--------------|
G|--0-----------|
D|-----2-----0--|
A|--------3-----|
E|--------------|



Am C F G
variations - click chord images
Transpose chords:
Tuning:
Cool service:
View: Size:
A  A  A
Rating:
Layout:
  • Currently 2.8/5 Stars.
  • 1
  • 2
  • 3
  • 4
  • 5
 
Accuracy:
  • Currently 3.1/5 Stars.
  • 1
  • 2
  • 3
  • 4
  • 5
 
click stars to rate
Chordie recommends:
Check out JamPlay.com for online video guitar lessons
Songbook:
Login to add this song to your songbook
Support the artist
Preview/buy this song
MSN Music
Why this non-profit ad?

 
login to add comments/video/corrections