Chordie logo


So Bad   Paul McCartney



-------------------------------------------------------------------------------
			     So Bad - Making April
-------------------------------------------------------------------------------
Tabbed by: John Micallef
Email: clever-ruse@hotmail.com

Tuning: Standard

Tab of the new Making April song "So Bad", the demo of which is here:

http://www.youtube.com/watch?v=U9qH6OORrBI

Enjoy!

INTRO

Fairly simple, strum pattern is DDUDUDU. It's sounds really nice if you 
accentuate the lower strings on the first chord change...

e|---0-----0-----0-----0---|
B|---0-----0-----0-----0---|
G|---6-----2-----1-----4---|
D|---6-----2-----2-----4---|
A|---4-----0-----2-----2---|
E|---0-----0-----0-----0---|

INTRO (Guitar 2)

I'm not sure at all if this is right since I don't know anybody else who can 
play but this might work for you if you do for a bit of harmony... Or you 
may want to play it instead of the verse by yourself...

e|---0------0---0---|
B|---0------0---0---|
G|---13-----8---6---|
D|---14-----9---7---|
A|---14-----9---7---|
E|---0------0---0---|

VERSE

This sounds really good if you play by yourself. The strum pattern would be DD (appegio) DU. 
(Hopefully you get what I mean)

e|---0---0----0---0---0----0---0---0----0---0---0----0---|
B|---0----0---0---0----0---0---0----0---0---0----0---0---|
G|---6--------6---2--------2---1--------1---4--------4---|
D|---6--------6---2--------2---2--------2---4--------4---|
A|---4--------4---0--------0---2--------2---2--------2---|
E|---0--------0---0--------0---0--------0---0--------0---|

CHORUS

Same as intro...

e|---0-----0-----0-----0---|
B|---0-----0-----0-----0---|
G|---6-----2-----1-----4---|
D|---6-----2-----2-----4---|
A|---4-----0-----2-----2---|
E|---0-----0-----0-----0---|

FILL

This is the bit after the chorus and meant to be played on the second 
guitar. I know this isn't right, your choice whether to use it but it adds a 
bit of variation you might like... Just appegiate the three higher strings 
of the intro chords... Play this once through then onto the second verse...

e|---0---0---0---0---0---0---0---0---0---0---0---0----|
B|----0---0---0---0---0---0---0---0---0---0---0---0---|
G|-----6---6-------2---2-------1---1-------4---4------|
D|----------------------------------------------------|
A|----------------------------------------------------|
E|----------------------------------------------------|


End on an E


LYRICS

You were here when i wrote this one
so when you hear it you'll know that it's yours
you were high as a bird perched beside me
listening closely mesmerized by the words that i
would sing to you through your headphones
oh you looked so damn cute in those headphones
just a quick hello but you'd soon go


And i miss you so bad
I miss you so so bad
And i need you so bad 
I need you so so bad
I need you so bad.

These four just the same chords
i would use every time you would tell me baby
write this one about me you'd never catch me
i'm stealing last night's story oh
but i doubt you really cared at all 
no not at all
you're the muse in my life when you leave i'll die
will you keep me alive?

Chorus

You look right and i stare back
and i'm finding refuge in your eyes
there's nothing i wouldn't do right now to be sure
i dont lose you this time.

Chorus


| /  slide up
| \  slide down
| h  hammer-on
| p  pull-off
| ~  vibrato
| +  harmonic
| x  Mute note


Important: The song above is NOT stored on the Chordie server. The original song is hosted at www.guitaretab.com. Chordie works as a search engine and provides on-the-fly formatting. Chordie does not index songs against artists/composers will. To remove this song please click here.

This song is displayed as text-only. Transposing and tuning is only available for chordpro-songs.

Login - add to songbook

Rating click stars to rate

Layout
Accuracy

SHARE PAGE  




You need to log in to post comments

Glennnon (report)

Wrong song this is not 'So Bad' by Paul McCartney