|----3----|    |----3----|       |----3----|    |----3----|     

E||--------------------------------|--------------------------------|
B||------------0--------------0----|------------0--------------0----|
G||-------2--------------0---------|-------2--------------0---------|
D||--0--------------2--------------|--4--------------2--------------|
A||--------------------------------|--------------------------------|
E||--------------------------------|--------------------------------|
|----3----| |----3----| |----3----| |----3----|
--------------------------------|--------------------------------|
------------0--------------0----|------------0--------------0----|
-------2--------------0---------|-------2--------------0---------|
--0--------------2--------------|--4--------------2--------------|
--------------------------------|--------------------------------|
--------------------------------|--------------------------------|
|----3----| |----3----| |----3----| |----3----|
--------------------------------|--------------------------------|
------------0--------------0----|------------0--------------0----|
-------2--------------0---------|-------2--------------0---------|
--0--------------2--------------|--4--------------2--------------|
--------------------------------|--------------------------------|
--------------------------------|--------------------------------|
|----3----| |----3----| |----3----| |----3----|
--------------------------------|--------------------------------|
------------0--------------0----|------------0--------------0----|
-------2--------------0---------|-------2--------------0---------|
--0--------------2--------------|--4--------------2--------------|
--------------------------------|--------------------------------|
--------------------------------|--------------------------------|
|----3----| |----3----| |----3----| |----3----|
--------------------------------|--------------------------------|
------------0--------------0----|------------0--------------0----|
-------2--------------0---------|-------2--------------0---------|
--0--------------2--------------|--4--------------2--------------|
--------------------------------|--------------------------------|
--------------------------------|--------------------------------|
|----3----| |----3----| |----3----| |----3----|
--------------------------------|--------------------------------|
------------0--------------0----|------------0--------------0----|
-------2--------------0---------|-------2--------------0---------|
--0--------------2--------------|--4--------------2--------------|
--------------------------------|--------------------------------|
--------------------------------|--------------------------------|

 CG
                                  v  ^  v  ^       v  ^  v  ^
  |----3----|                |--3-|  |--3--|  |--3-|  |--3--|   

Q Q Q H Q E E E E Q E E E E
-----------------0--------||-0----0--0--0--0--3----3--3--3--3--|
------------0-------------||-1----1--1--1--1--0----0--0--0--0--|
-------2------------------||-0----0--0--0--0--0----0--0--0--0--|
--0-----------------------||-2----2--2--2--2--0----0--0--0--0--|
--------------------------||-3----3--3--3--3--2----2--2--2--2--|
--------------------------||------------------3----3--3--3--3--|


 DCG
       v  ^  v  ^       v  ^  v  ^          v  ^  v  ^       v  ^  v  ^
  |--3-|  |--3--|  |--3-|  |--3--|     |--3-|  |--3--|  |--3-|  |--3--|   

Q E E E E Q E E E E Q E E E E Q E E E E
--2----2--2--2--2--2----2--2--2--2--|--0----0--0--0--0--3----3--3--3--3--|
--3----3--3--3--3--3----3--3--3--3--|--1----1--1--1--1--0----0--0--0--0--|
--2----2--2--2--2--2----2--2--2--2--|--0----0--0--0--0--0----0--0--0--0--|
--0----0--0--0--0--0----0--0--0--0--|--2----2--2--2--2--0----0--0--0--0--|
------------------------------------|--3----3--3--3--3--2----2--2--2--2--|
------------------------------------|-------------------3----3--3--3--3--|


 DCG
       v  ^  v  ^       v  ^  v  ^          v  ^  v  ^       v  ^  v  ^
  |--3-|  |--3--|  |--3-|  |--3--|     |--3-|  |--3--|  |--3-|  |--3--|   

Q E E E E Q E E E E Q E E E E Q E E E E
--2----2--2--2--2--2----2--2--2--2--|--0----0--0--0--0--3----3--3--3--3--|
--3----3--3--3--3--3----3--3--3--3--|--1----1--1--1--1--0----0--0--0--0--|
--2----2--2--2--2--2----2--2--2--2--|--0----0--0--0--0--0----0--0--0--0--|
--0----0--0--0--0--0----0--0--0--0--|--2----2--2--2--2--0----0--0--0--0--|
------------------------------------|--3----3--3--3--3--2----2--2--2--2--|
------------------------------------|-------------------3----3--3--3--3--|


 DCG
       v  ^  v  ^       v  ^  v  ^          v  ^  v  ^       v  ^  v  ^
  |--3-|  |--3--|  |--3-|  |--3--|     |--3-|  |--3--|  |--3-|  |--3--|   

Q E E E E Q E E E E Q E E E E Q E E E E
--2----2--2--2--2--2----2--2--2--2--|--0----0--0--0--0--3----3--3--3--3--|
--3----3--3--3--3--3----3--3--3--3--|--1----1--1--1--1--0----0--0--0--0--|
--2----2--2--2--2--2----2--2--2--2--|--0----0--0--0--0--0----0--0--0--0--|
--0----0--0--0--0--0----0--0--0--0--|--2----2--2--2--2--0----0--0--0--0--|
------------------------------------|--3----3--3--3--3--2----2--2--2--2--|
------------------------------------|-------------------3----3--3--3--3--|


 D
       v  ^  v  ^       v  ^  v  ^
  |--3-|  |--3--|  |--3-|  |--3--|     |----3----|    |----3----|     

Q E E E E Q E E E E Q Q Q Q Q Q
--2----2--2--2--2--2----2--2--2--2--||--------------------------------|
--3----3--3--3--3--3----3--3--3--3--||------------0--------------0----|
--2----2--2--2--2--2----2--2--2--2--||-------2--------------0---------|
--0----0--0--0--0--0----0--0--0--0--||--0--------------2--------------|
------------------------------------||--------------------------------|
------------------------------------||--------------------------------|
  |----3----|    |----3----|       |----3----|    |----3----|     

Q Q Q Q Q Q Q Q Q Q Q Q
--------------------------------|--------------------------------|
------------0--------------0----|------------0--------------0----|
-------2--------------0---------|-------2--------------0---------|
--4--------------2--------------|--0--------------2--------------|
--------------------------------|--------------------------------|
--------------------------------|--------------------------------|
  |----3----|    |----3----|       |----3----|    |----3----|     

Q Q Q Q Q Q Q Q Q Q Q Q
--------------------------------|--------------------------------|
------------0--------------0----|------------0--------------0----|
-------2--------------0---------|-------2--------------0---------|
--4--------------2--------------|--0--------------2--------------|
--------------------------------|--------------------------------|
--------------------------------|--------------------------------|
  |----3----|    |----3----|       |----3----|    |----3----|     

Q Q Q Q Q Q Q Q Q Q Q Q
--------------------------------|--------------------------------|
------------0--------------0----|------------0--------------0----|
-------2--------------0---------|-------2--------------0---------|
--4--------------2--------------|--0--------------2--------------|
--------------------------------|--------------------------------|
--------------------------------|--------------------------------|
  |----3----|    |----3----|       |----3----|    |----3----|     

Q Q Q Q Q Q Q Q Q Q Q Q
--------------------------------|--------------------------------|
------------0--------------0----|------------0--------------0----|
-------2--------------0---------|-------2--------------0---------|
--4--------------2--------------|--0--------------2--------------|
--------------------------------|--------------------------------|
--------------------------------|--------------------------------|
  |----3----|    |----3----|       |----3----|    |----3----|     

Q Q Q Q Q Q Q Q Q Q Q Q
--------------------------------|--------------------------------|
------------0--------------0----|------------0--------------0----|
-------2--------------0---------|-------2--------------0---------|
--4--------------2--------------|--0--------------2--------------|
--------------------------------|--------------------------------|
--------------------------------|--------------------------------|
  |----3----|    |----3----|       |----3----|              

Q Q Q Q Q Q Q Q Q H
--------------------------------|-----------------0--------||
------------0--------------0----|------------0-------------||
-------2--------------0---------|-------2------------------||
--4--------------2--------------|--0-----------------------||
--------------------------------|--------------------------||
--------------------------------|--------------------------||


 CGD
       v  ^  v  ^       v  ^  v  ^          v  ^  v  ^       v  ^  v  ^
  |--3-|  |--3--|  |--3-|  |--3--|     |--3-|  |--3--|  |--3-|  |--3--|   

Q E E E E Q E E E E Q E E E E Q E E E E
--0----0--0--0--0--3----3--3--3--3--|--2----2--2--2--2--2----2--2--2--2--|
--1----1--1--1--1--0----0--0--0--0--|--3----3--3--3--3--3----3--3--3--3--|
--0----0--0--0--0--0----0--0--0--0--|--2----2--2--2--2--2----2--2--2--2--|
--2----2--2--2--2--0----0--0--0--0--|--0----0--0--0--0--0----0--0--0--0--|
--3----3--3--3--3--2----2--2--2--2--|------------------------------------|
-------------------3----3--3--3--3--|------------------------------------|


 CGD
       v  ^  v  ^       v  ^  v  ^          v  ^  v  ^       v  ^  v  ^
  |--3-|  |--3--|  |--3-|  |--3--|     |--3-|  |--3--|  |--3-|  |--3--|   

Q E E E E Q E E E E Q E E E E Q E E E E
--0----0--0--0--0--3----3--3--3--3--|--2----2--2--2--2--2----2--2--2--2--|
--1----1--1--1--1--0----0--0--0--0--|--3----3--3--3--3--3----3--3--3--3--|
--0----0--0--0--0--0----0--0--0--0--|--2----2--2--2--2--2----2--2--2--2--|
--2----2--2--2--2--0----0--0--0--0--|--0----0--0--0--0--0----0--0--0--0--|
--3----3--3--3--3--2----2--2--2--2--|------------------------------------|
-------------------3----3--3--3--3--|------------------------------------|


 CGD
       v  ^  v  ^       v  ^  v  ^          v  ^  v  ^       v  ^  v  ^
  |--3-|  |--3--|  |--3-|  |--3--|     |--3-|  |--3--|  |--3-|  |--3--|   

Q E E E E Q E E E E Q E E E E Q E E E E
--0----0--0--0--0--3----3--3--3--3--|--2----2--2--2--2--2----2--2--2--2--|
--1----1--1--1--1--0----0--0--0--0--|--3----3--3--3--3--3----3--3--3--3--|
--0----0--0--0--0--0----0--0--0--0--|--2----2--2--2--2--2----2--2--2--2--|
--2----2--2--2--2--0----0--0--0--0--|--0----0--0--0--0--0----0--0--0--0--|
--3----3--3--3--3--2----2--2--2--2--|------------------------------------|
-------------------3----3--3--3--3--|------------------------------------|


 CGD
       v  ^  v  ^       v  ^  v  ^          v  ^  v  ^       v  ^  v  ^
  |--3-|  |--3--|  |--3-|  |--3--|     |--3-|  |--3--|  |--3-|  |--3--|   

Q E E E E Q E E E E Q E E E E Q E E E E
--0----0--0--0--0--3----3--3--3--3--|--2----2--2--2--2--2----2--2--2--2--|
--1----1--1--1--1--0----0--0--0--0--|--3----3--3--3--3--3----3--3--3--3--|
--0----0--0--0--0--0----0--0--0--0--|--2----2--2--2--2--2----2--2--2--2--|
--2----2--2--2--2--0----0--0--0--0--|--0----0--0--0--0--0----0--0--0--0--|
--3----3--3--3--3--2----2--2--2--2--|------------------------------------|
-------------------3----3--3--3--3--|------------------------------------|


 DD
       v  ^  v  ^       v  ^  v  ^      
  |--3-|  |--3--|  |--3-|  |--3--|                         

Q E E E E Q E E E E W
--2----3--3--3--3--2----3--3--3--3--|--2-----------------||
--3----3--3--3--3--3----3--3--3--3--|--3-----------------||
--2----2--2--2--2--2----2--2--2--2--|--2----------------*||
--0----0--0--0--0--0----0--0--0--0--|--0----------------*||
------------------------------------|--------------------||
------------------------------------|--------------------||


Duration Legend
---------------

W - whole
H - half
Q - quarter
E - 8th
S - 16th
T - 32nd
X - 64th
. - note dotted
|-n-| - n-tuplets

Tablature Legend
----------------

L - tied note
x - dead note
g - grace note
(n) - ghost note
> - accentuded note
NH - natural harmonic
AH - artificial harmonic
TH - tapped harmonic
SH - semi harmonic
PH - pitch harmonic
h - hammer on
p - pull off
b - bend
br - bendRelease
pb - preBend
pbr - preBendRelease
brb - bendReleaseBend
\n/ - tremolo bar dip
\n - tremolo bar dive
-/n - tremolo bar Release up
/n\ - tremolo bar inverted dip
/n - tremolo bar return
-\n - tremolo bar Release down
S - shift slide
s - legato slide
/ - slide into from below or out of upwards
\ - slide into from above or out of downwards
~ - vibrato
W - wide vibrato
tr - trill
TP - tremolo picking
T - tapping
S - slap
P - pop
< - fade in
^ - brush up
v - brush down

C D G
variations - click chord images
Transpose chords:
Tuning:
Cool service:
View: Size:
A  A  A
Rating:
Layout:
  • Currently 2.7/5 Stars.
  • 1
  • 2
  • 3
  • 4
  • 5
 
Accuracy:
  • Currently 2.9/5 Stars.
  • 1
  • 2
  • 3
  • 4
  • 5
 
click stars to rate
Chordie recommends:
Check out JamPlay.com for online video guitar lessons
Songbook:
Login to add this song to your songbook
Support the artist
Preview/buy this song
MSN Music
Why this non-profit ad?

 
login to add comments/video/corrections