Chordie logo

Young Boy  Paul McCartney



















[C]        [Am]        [Em]        [F]        [G]     
[C]He's just a young boy
[Am]Looking for a way to [Em]find love  [F]        [G]
[C]It isn't easy
[Am]Nothing you can say will [Em]help him [F]find [G]love
[F]He's got to do it [G]for himself
[Am]And it can take so [Dm]long

[C]He's just a young boy
[Am]Looking for a way to [Em]find love  [F]        [G]
[C]He doesn't need a[Am]nother helping hand from [Em]someone [F]      [G]
[C]But don't you think he [Am]doesnt understand what [Em]he wants
[F]Some-[G]one
[F]Though independence [G]means a lot
[Am]He's gotta still be [Dm]strong

[C]He's just a young boy
[Am]Looking for a way to [Em]find love  [F]        [G]

[Em]Find [Am]love
A [F]perfect combina[G]tion
[Em]Find [Am]love
What[F]ever you [G]do
[Em]Find [Am]love
A [F]cause for celebra[G]tion
[F]And it might come [Dm]looking  (looking)
Come looking for [G]you

Solo
        [F]  [G]  [Am]   [Dm]                      
[Em]Find [Am]love
In [F]any situa[G]tion
[Em]Find [Am]love
What[F]ever you [G]do
[Em]Find [Am]love
A [F]cause for celebra[G]tion
[F]And it might come [Dm]looking  (looking)
Come looking for [G]you

[C]He's just a young boy
[Am]Looking for a way to [Em]find love  [F]        [G]
[C]It isn't easy
[Am]Nothing you can say will [Em]help him [F]find [G]love
[F]He's got to do it [G]for himself
[Am]And it can take so [Dm]long

etc.

Intro riff:

[---3--1h3h1--0----------------------------------------------]
[---5--3h5h3--1--3--1--0------------1--0---------------------]
[----------------4--2--0--2--4------2--0--2--0-----2s4--5----]
[-------------------------3--5------------3--2--0------------]
[------------------------------------------------------------]
[------------------------------------------------------------]


2nd verse riff (After "Looking for a way to find love")

[-----------------------------]
[-----------------------------]
[----5--7b9-7b9--7--5---------]
[----------------------7--5---]
[-----------------------------]
[-----------------------------]



3rd verse riff (After "Looking for a way to find love")

[-----------------------------]
[---5--6--5--6--5--6s8--------]
[-----------------------------]
[-----------------------------]
[-----------------------------]
[-----------------------------]


Bass/guitar riff (under 'Find love')

Find love
[----------------------------]
[----------------------------]
[--------2--0----------------]
[--0--3----------------------]


Solo:
GN GN
[-------------------------------------------------------------------]
[--------------------------------------8-----8h10h8-----8--8--10----]
[------------------------5--7b9--5--------9----------9--------------]
[------------------5--7---------------------------------------------]
[----3--3--3--5s7---------------------------------------------------]
[-------------------------------------------------------------------]
[----------8--10b12--10b12--10--8-----------------------------------]
[---8--10--------------------------10--8----------------------------]
[-------------------------------------------------------------------]
[-------------------------------------------------------------------]
[-------------------------------------------------------------------]
[-------------------------------------------------------------------]
[--15b17--17--17--17--17--15--------------------------------------------------]
[-----------------------------15b17--15--13h15h13------15--15b16--17b18-------]
[--------------------------------------------------14-------------------------]
[-----------------------------------------------------------------------------]
[-----------------------------------------------------------------------------]
[-----------------------------------------------------------------------------]
[----------------------------------------------------------------------------]
[--15--13h15h13------13--15--13--13----13--13--15--17--15--15--17--18--17----]
[----------------14--------------------14--14--16--17--16--16--17--19--17----]
[----------------------------------------------------------------------------]
[----------------------------------------------------------------------------]
[----------------------------------------------------------------------------]
[---------15------------]
[-17--18--17--18--------]
[-17--19------19--------]
[-----------------------]
[-----------------------]
[-----------------------]



Transcribed by David Linley, 1st May 1997.
Mistakes and comments to


Zz
zZ
|\ z _,,,---,,_ "It could have been worse. I could have been the
/,`.-'`' _ ;-;;,_ fifth member of Sigue Sigue Sputnik."
|,4- ) )-,_..;\ ( `'_' Pete Best, 1997.
 '---''(_/--'  `-'\_)