Chordie logo
content loaded from cache

All About You  McFly

C (x32010) Am (002210) Asus (000230) G (320003)
E (022100) F (x33211) Fm (133111) D (xx0232)

INTRO

[C]It's all a[Am]bout you
[Asus]It's all a[G]bout you baby
[C]It's all a[Am]bout you
[Asus]It's all a[G]bout you

[C]Yesterday you [E]asked me something
I th[Am]ought you k[C]new
So I t[Asus]old you with a sm[G]ile
It's a[G]ll about y[C]ou


G (strum)


**T[C]hen you whispered i[E]n my ear
And you t[Am]old me t[C]oo
Said you [Asus]make my life worthwh[G]ile
It's all about y[C]ou

** At this point Guitar 2 plays along with the tune like this:


e|-3-0-1-3-4-0-4-5-7-7-8---3-3-1-0-1-8-7-7-7-8-9-8-6----------------------|
B|-----------------------1------------------------------------------------|
G|------------------------------------------------------------------------|
D|------------------------------------------------------------------------|
A|------------------------------------------------------------------------|
E|------------------------------------------------------------------------|



[F]And I would answer [Fm]all your wishes
[C]If you asked me [Am]to
But if [Asus]you deny me [D]one of your kisses
[G]Don't know what I'd [Asus]do

[C]So hold me close and [E]say three words
Like you [Am]used to d[C]o
Dancing o[Asus]n the kitchen t[G]iles
[G]It's all a[C]bout you

Guitar 2 solo:


      e|-----------------------------------------------8-10-12-12-12-12-|
      B|-0-1-3-5-5-5-5-3-3-1-3-1---------------5-6-8-8------------------|
      G|-------------------------2-2------------------------------------|
      D|----------------------------------------------------------------|
      A|-----------------------------5-3-5-3----------------------------|
      E|----------------------------------------------------------------|


Guitar 1
(chords): C E Am C

      e|-10-8-7-8-10-8--8-8-5---------------------------------------|
      B|----------------------8-5-3-1-3-1---------------------------|
      G|------------------------------------------------------------|
      D|------------------------------------------------------------|
      A|------------------------------------------------------------|
      E|------------------------------------------------------------|


Gt 1: G C


[F]And I would answer a[Fm]ll your wishes
[C]If you asked me [Am]to
But if [Asus]you deny me o[D]ne of your kisses
[G]Don't know what I'd [Asus]do

[C]So hold me close and s[E]ay three words
Like you [Am]used to [C]do

Dancing [Asus]on the kitchen [G]tiles
Yes you [Fm]make my life worth[G]while
So I [Fm]told u with a [Asus]smile


[C]It's all a[Am]bout you
[Asus]It's all a[G]bout you baby
[C]It's all a[Am]bout you
[Asus]It's all a[G]bout you baby
[C]It's all a[Am]bout you
[Asus]It's all a[G]bout you baby
[C]It's all a[Am]bout you
[Asus]It's all about [Fm]you

(Mute) C (let ring)
It's all about you.

Important: The song above is NOT stored on the Chordie server. The original song is hosted at www.guitaretab.com. Chordie works as a search engine and provides on-the-fly formatting. Chordie does not index songs against artists/composers will. To remove this song please click here.

Am Asus C D E F Fm G
variations - click chord images

Transpose chords

Tuning

Rating click stars to rate

Layout
Accuracy

SHARE PAGE  

You need to log in to post comments