Chordie logo


Hijo De La Luna   Mecano



Mecano - Hijo de la luna
tabed by roy

capo / klem 4e
http://www.youtube.com/watch?v=q-8iyFrMCUQ


rif 1		   G		F
e|------0--------------------------------------|
a|------1----3------0--------------------0--1--|   |--0h1--|   	|--0----|
d|-----------0------0----2---------2-----0-----|   |-----2-|	|---0h2-|
g|-----------------------------3---3-----------|
b|---0-------------------------3---------------|
e|----------------3---------1--------3---------|


rif 2	Am	           F
e|--------0------------------------------------|
a|-------(1)0------------------------0--1------|   |---0---|	|-0h10--|
d|------2--------2-------------2-----0--0------|   |-0-----|	|-----0-|
g|-----2-------------------3---3---------------|
b|---0---------------------3-------------------|
e|----------0-0---------1----------3-----------|


  
rif 3 	  c	G	Am            F
e|---------0-0----------0----------------------|
a|------1--1-1-3--0-----1-0--------------0h10--|
D|----0--------0------2-------2--------2-----0-|
G|-------------------2----------------3--------|
b|---3--------------0--------------------------|
e|-------------3----------0-0-------1----3-----|



rif 4			    c		D
e|-----0---------------------0----------2-b3---|
a|-----1----3----0----1------1---1------3------|
d|----------0----0---------------0-------------|
g|-----------------------------------0---------|
b|--0---------------------3--------------------|
e|-------------3-------------------------------|


e|-0--------------------0---2--0--------|--0---|
a|------0---3----0--3---0----------4--4-|--4---|
d|------0-------------------------------|--0---|
g|----------0---------------------------|-(2---|
b|----------------------3----------2----|-(2---|


Important: The song above is NOT stored on the Chordie server. The original song is hosted at www.guitaretab.com. Chordie works as a search engine and provides on-the-fly formatting. Chordie does not index songs against artists/composers will. To remove this song please click here.

This song is displayed as text-only. Transposing and tuning is only available for chordpro-songs.

Login - add to songbook

Rating click stars to rate

Layout
Accuracy

SHARE PAGE  




You need to log in to post comments