eToCache5 = ""; ?> What Are You Into by Meg and Dia - guitar chords, guitar tabs and lyrics - chordie

What Are You Into

Meg and Dia

 F-133211
 -   x32010
Bbm - x13321
FM7 - xx3210

Intro:
 DmBbFC
e|-1-------1-0-|---------------|-------------|-----------------|
B|---3---------|---------------|-------------|-------1---------|
G|-----2-------|-----3---------|-----2---2---|-----0-----0-----|
D|-0-----0-----|---3---3-3h5p3-|-------3---3-|---2-----2---3-2-|
A|-------------|-1-------------|---3---------|-3---------------|
E|-------------|---------------|-1-----------|-----------------|


 DmBbm
e|-1-----------1-0-|-1---|
B|-3-3-3-3-3-3-3-3-|-2---|
G|-2-2-2-2-2-2-2-2-|-3---|
D|-0-0-0-0-0-0-0-0-|-3---|
A|-----------------|-1---|
E|-----------------|-----|


Chorus:
 DmBbFC
 I can't sing with an angry song
 DmBbFC
 makes me sick i can't think straight
 DmBbFC
 i fall apart when i think of the world
Bb C Dm(Riff)
think of the world i'm in

Riff:
e|-----------------5-5-5-5-|
B|-------------6---6-6-6-6-|
G|---------7-------7-7-7-7-|
D|-----7-----------7-7-7-7-| x2
A|-5-5---5---5---5-5-5-5-5-|
E|-------------------------|


Verse 1:
 DmF
 once in a paper doll world
 BbC
 i felt the pain of a summer
 Dm
 porcelain skin that
 F
the sun would soon hurt
 BbC
 such were the pains of my wanders
 BbC
 poor little girl with a sunburn
 BbC
 poor little girl with a sunburn

Verse 2:
 DmF
   once was a shadow shrewn here
 Bb
 branches were
 C
cracking like fingers
 Dm
 my little light got
 F
 caught in our fears
 Bb
 those were the fears
 C
in my dream dear
 Bb
 as for my trembling
 C
white fingers
 Bb
 as for these trembling
 C
white fingers

Chorus 2:
 DmBbFC
 I can't sing with an angry song
 DmBbFC
 makes me sick i can't think straight
 DmBbFC
 i fall apart when i think of the world
Bb C FM7(Riff)
think of the world i'm in

Riff:
e|-5-5-5-5-5-5--|
B|-5-5-5-5-5-5--|
G|-5-5-5-5-5-5--|
D|-3-3-3-3-3-3--|
A|-----------------------|
E|-----------------------|


Bridge:
 Dm
 kill her right now
 Bb
you'll regret it if you wait
 BbDm
   it's over when it's lost
 FBbm
 sell me the secrets of love
in a pint of blood

Interlude: Dm--Bb-- x2

 F
 i can't see with an angry soul
 Bbm
(i can't sing with an angry song)
 F
 i can't sing when you're angry
 Bbm
 i can't see when you're angry
 F
 i can't see when you're angry
 Bbm
 i can't

Interlude: F--Bbm--Dm--Bb--Dm--Bbm--


Verse 3:
 F
He killed now
 Bb
 It could still
 DmC
remate so wonderful 
 FBb
We could be Rapsey in
 DmC
talking form from now on 
 F
Don't hold on
 Bb
 Just give me
 DmC
something to swallow 
 F
It's best to dance
 Bb
 while it burns
 Dm
if it must hurt
 C
if it must burn

Outro:
F(hold)
I could be
Bb(hold)
anything
F(hold)
wonderful


Bb Bbm C Dm F
variations - click chord images
Transpose chords:
Tuning:
Cool service:
View: Size:
A  A  A
Rating:
Layout:
  • Currently 3/5 Stars.
  • 1
  • 2
  • 3
  • 4
  • 5
 
Accuracy:
  • Currently 2.5/5 Stars.
  • 1
  • 2
  • 3
  • 4
  • 5
 
click stars to rate
Chordie recommends:
Learn to play guitar with video-based, online guitar lessons at JamPlay.com
Songbook:
Login to add this song to your songbook
Support the artist
Preview/buy this song
MSN Music
Why this non-profit ad?

 
login to add comments/video/corrections