Guitar Tabs, Chords and Lyrics


Killing Road   Megadeth



eb-----------------------------------------------------------|
Bb-----------------------------------------------------------|
Gb-----------------------------------------------------------|
Db--------------------------------------   1st Guitar(Intro--|
Ab-------7--------8--------7--------8--5---------------------|
Eb--0--0----0--0-----0--0-----0--0---------------------------|

eb---------------------------------------|
Bb---------------------------------------|
Gb---------------------------------------|
Db-------9-------10--------9-------10--7-|   2nd guitar(With 1st 2nd time in)
Ab---------------------------------------|
Eb--0--0----0--0-----0--0-----0--0-------|
   -  -    -  -     -  -     -  -


eb--------------------------------------|
Bb--------------------------------------|
Gb--------------------------------------|
Db-----------------------------------5--|   Both Guitars(Verse)
Ab-------7--------8--------7----7-------|
Eb--0--0----0--0-----0--0-----8----7----|
   -  -    -  -     -  -     -    -


eb--------------------------------------|
Bb--------------------------------------|
Gb-------------------------------5--4---|
Db------------------------------5--4----|
Ab-----------------3---3---3---6--5-----|
Eb--0-3-2-1-0-0-1-1-1-1-1-1---7--6------|
   - - - - - - - - - - - -


eb--------------------------------------|
Bb--------------------------------------|
Gb--9-----------------------------------|
Db--9----9---8---5----1-2---------------|  Chorus
Ab--7----9---8---5----1-2---------------|
Eb-------7---6---3----3-0---------------|


eb---------------------------------------|
Bb---------------------------------------|
Gb---------------------------------------|  Rhythm through solo
Db---4--4----4--5----2--2-----5--------5-|
Ab---4--4----4--5----2--2-----5--------5-|
Eb---2--2----2--3----0--0--0--3--0--0--3-|
                           -     -  -

eb--------------------------------------|
Bb--------------------------------------|
Gb--------------------------------------|
Db-----------------------------------5--|   This is played again through
Ab-------7--------8--------7----7-------|   Mustaines solo.
Eb--0--0----0--0-----0--0-----8----7----|
   -  -    -  -     -  -     -    -


eb--------------------------------------|
Bb--------------------------------------|
Gb-------------------------------5--4---|
Db------------------------------5--4----|
Ab-----------------3---3---3---6--5-----|
Eb--0-3-2-1-0-0-1-1-1-1-1-1---7--6------|
   - - - - - - - - - - - -


I didn't put in the solo but I will in the near future.


Important: The song above is NOT stored on the Chordie server. The original song is hosted at www.guitaretab.com. Chordie works as a search engine and provides on-the-fly formatting. Chordie does not index songs against artists/composers will. To remove this song please click here.

This song is displayed as text-only. Transposing and tuning is only available for chordpro-songs.

Login - add to songbook

Rating click stars to rate

Layout
Accuracy

SHARE PAGE  




You need to log in to post comments