Brand New Key

Melanie Safka

-----------------------------------------------------------------------------

-----------------------------------------------------------------------------
e|----------------------------------------------------------------4----------|
B|----------------------------------------------------------------6----------|
G|---------------6---------------6---------------6----------------6----------|
D|-------6---------------6---------------6------------------------6----------|
A|---4---------------4---------------4---------------4------------4----------|
E|-----------4---------------4---------------4----------4--6--8--------------|
C# A|-4-6-8---|
G# E|-4-6-8---|
C# A|-4-6-8---|

 F#G#
 I'm ok alone but you've got something I need

 C#
Well, I've gotta brand new pair of roller skates
You got a brand new key
 C#
I think that we should get together
And try them out ya see
 F#
 I've been lookin' around a while
You got somethin' for me
 C#
Oh, I gotta brand new pair of roller skates
G#                  C#           E|-4-6-8---|

You got a brand new key

 C#
 I ride my bike, I roller skate, don't drive no car
 G#
 Don't go too fast, but I go pretty far
 C#
 For somebody who don't drive I've been all around the world
 F#G#
 Some people say I've done all right for a girl

   C#                    F#         G#                C#        E|-4-6-8---|

Oh yeah, yeah-yeah-yeah, yeah-yeah, oh yeah, oh yeah, yeah-yeah

 C#
 I asked your mother if you were at home
 G#
 She said yes, but you weren't alone
 C#
 Oh sometimes I think that your avoiding me
 F#G#
 I'm ok alone but you got something I need, well

 C#
 I've gotta brand new pair of roller skates
You got a brand new key
 C#
 I think that we should get together
And try them out ya see
 F#
 La, la, la, la, la, la, la, la
 G#
La, la, la, la, la, la
 C#
Oh, I gotta brand new pair of roller skates
 G#C#
 You got a brand new key

Pretty Easy!
============================================================================


C# F# G#
variations - click chord images
Transpose chords:
Tuning:
Cool service:
View: Size:
A  A  A
Rating:
Layout:
  • Currently 2.9/5 Stars.
  • 1
  • 2
  • 3
  • 4
  • 5
 
Accuracy:
  • Currently 3.4/5 Stars.
  • 1
  • 2
  • 3
  • 4
  • 5
 
click stars to rate
Chordie recommends:
Learn to play guitar with video-based, online guitar lessons at JamPlay.com
Songbook:
Login to add this song to your songbook
Support the artist
Preview/buy this song
MSN Music
Why this non-profit ad?

 
login to add comments/video/corrections

sevenOfMine (report comment to admin):
Here is the first Verse:


C# A|-4-6-8---|
I rode my bicycle past your window last night
G# E|-4-6-8---|
I roller skated to your door at daylight
C# A|-4-6-8---|
It almost seems that you're avoiding me
F# G#
I'm ok alone but you've got something I need