eToCache5 = ""; ?> Dont You Need by Melissa Etheridge - guitar chords, guitar tabs and lyrics - chordie

Dont You Need

Melissa Etheridge

------------------------------------------------------------------------


 Em7C(9
 I had a dream late last night

 Em7C(9
 The water was running low 

 Em7
and my fields were on fire

 C(9
 burning my sky.

 Em7C(9
 My body was moving slow  

 B7
 and when I awoke I tasted the sweat

 A7Em7
of desire on my mouth.  And I

 C(9Em7
realized my heart had abducted my mind 

 C(9
and they were last seen headed south.

 B7
Now I can't sleep, I'm so wired,

 A7
and I find myself screaming out

Baug Em7 D
Don't you need? Don't you want?

 C(9
Can't you taste it when you're alone?

 Em7D
Don't you cry?  Don't you feel?

 C(9
Sometimes I wonder if you are real.

 B7
Don't you bleed?  Don't you need?

(instrumental 3 full bars, lyrics on 4th)
 Em7C(9Em7C(9
 Em7
There's no quenching of thirst

 C(9Em7C(9
 there's no relief for the hungry at heart

 Em7C(9
 And as far as you're concerned I'm just a thief

 Em7C(9
 entertaining in the dark. 

 B7
But it's you that holds the cards

 A7
Now that the joker is wild.

Baug Em7 D
Don't you need? Don't you want

 C(9
Can't you taste it when you're alone?

 Em7D
Don't you cry?  Don't you feel?

 C(9
Sometimes I wonder if you are real.

 B7A7C(9
Don't you bleed?  Don't you need? 

 D
 Don't you want to lay it down

 C(9
 and feel your skin against the ground?

 DC(9
 Don't you want to ride the storm

and then sleep inside the calm?

 D
 Don't you want to get that high?

 C/ED/F#
 Don't you wanna be satisfied?

 Cmaj7
Well, if you don't get that from me--

 B7Em7
 Don't you need?

(instrumental 3 full bars)
 Cmaj7Em7Cmaj7
 Em7C(9
 I had a dream late last night

 Em7C(9
 The water was running low 

 Em7
and my fields were on fire,

 C(9Em7C(9
 burning my sky.  How was I to know

 B7
that I burn every night in my dreams

 A7
and only morning can set me free....

(alternate bars of Em7 and C(9) to fade)

 -----
PICKING

 Em7
        e  ----------0---------------------|
        B  ----------------3---------------|
        G  ------0-------0-----0-------0---|
        D  ----2---2---2-----------0h2-----|
        A  --------------------------------|
        E  0-------------------------------|


 C(9
        e  ----------0---------------------|
        B  ----------------3---------------|
        G  ------0-------0-----0-------0---|
        D  ----2---2---2-----------0h2-----|
        A  3-------------------------------|
        E  --------------------------------|


CHORDS
E A D G B e
                ---------------------

A7 X 0 2 0 2 0
B7 X 2 1 2 0 2
C(9) X 3 2 0 3 0
Cmaj7 X 3 2 0 0 0
C/E X X 2 0 1 0
D X X 0 2 3 2
D/F# 2 0 0 2 3 X
Em7 0 2 2 0 3 0

---------------------------------------------------------------------

Corrections, suggestions, cash donations, as always, are welcome..

Tina


A7 B7 C/E Cmaj7 D D/F# Em7
variations - click chord images
Transpose chords:
Tuning:
Cool service:
View: Size:
A  A  A
Rating:
Layout:
  • Currently 3.1/5 Stars.
  • 1
  • 2
  • 3
  • 4
  • 5
 
Accuracy:
  • Currently 2.9/5 Stars.
  • 1
  • 2
  • 3
  • 4
  • 5
 
click stars to rate
Chordie recommends:
Learn to play this song & others via video guitar lessons at JamPlay.com
Songbook:
Login to add this song to your songbook
Support the artist
Preview/buy this song
MSN Music
Why this non-profit ad?

 
login to add comments/video/corrections