Walking On Water

Melissa Etheridge

 AmGAm
--------------------------------------------------------|
--------5-------5------------------------5------5-------|
----------5-------5---5-------4------------5------5---5-|
-----7------7-------7-------5---------7------7------7---|
--------------------------------------------------------|
-5------------------------3-------5---------------------|


 GAmGAmGAm
-----------------------------------------------------|
----------------5------5-----------------------------|
------4-----------5------5---5------4----5----4--5---|
----5--------7------7------7------5------7----5--7---|
-----------------------------------------------------|
-3-------5----------------------3--------5----3--5---|


 Dm
What did you want

 Dm
How could I guess

 Am
You wanted more

 Am
I gave you less

 Dm
A miracle

 Dm
Is all I need

 Am
A bush to burn

 Am
A stone to bleed

 Bb
Walking on water

 Am
Water to wine

 F
Love lasts forever

 G
Wish you were mine

 AmGAm
--------------------------------------------------------|
--------5-------5------------------------5------5-------|
----------5-------5---5-------4------------5------5---5-|
-----7------7-------7-------5---------7------7------7---|
--------------------------------------------------------|
-5------------------------3-------5---------------------|


 GAmGAmGAm
-----------------------------------------------------|
----------------5------5-----------------------------|
------4-----------5------5---5------4----5----4--5---|
----5--------7------7------7------5------7----5--7---|
-----------------------------------------------------|
-3-------5----------------------3--------5----3--5---|


 Dm
What did I take

 Dm
That took away

 Am
Desire's spark

 Am
A lover's blaze

 Dm
Stone cold skin

 Dm
A bitter breeze

 Am
A miracle

 Am
Is all I need

 Bb
Walking on water

 Am
Water to wine

 F
Love lasts forever

Wish you were mine

 AmGAm
--------------------------------------------------------|
--------5-------5------------------------5------5-------|
----------5-------5---5-------4------------5------5---5-|
-----7------7-------7-------5---------7------7------7---|
--------------------------------------------------------|
-5------------------------3-------5---------------------|


 GAmGAmGAm
-----------------------------------------------------|
----------------5------5-----------------------------|
------4-----------5------5---5------4----5----4--5---|
----5--------7------7------7------5------7----5--7---|
-----------------------------------------------------|
-3-------5----------------------3--------5----3--5---|				



Am Bb Dm F G
variations - click chord images
Transpose chords:
Tuning:
Cool service:
View: Size:
A  A  A
Rating:
Layout:
  • Currently 3.2/5 Stars.
  • 1
  • 2
  • 3
  • 4
  • 5
 
Accuracy:
  • Currently 2.8/5 Stars.
  • 1
  • 2
  • 3
  • 4
  • 5
 
click stars to rate
Chordie recommends:
Get acoustic guitar lessons and electric guitar lessons at JamPlay.com
Songbook:
Login to add this song to your songbook
Support the artist
Preview/buy this song
MSN Music
Why this non-profit ad?

 
login to add comments/video/corrections