Guitar Tabs, Chords and Lyrics


Lelaki Idaman  Melly Goeslaw

----------------------------------------------------------------------------



----------------------------------------------------------------------------

e|-------------------------------------------------------|
B|---6----6-6-6------------------------------------------|
G|---5----5-5-5------------------------------------------|
D|---4----4-4-4------------------------------------------|
A|---5----5-5-5------------------------------------------|
E|-------------------------------------------------------|
e|---5--5-5-|--3--3-3-|--3--3-3-|--5----5---6----|
B|---6--6-6-|--3--3-3-|--5--5-5-|--6----5---6----|
G|---7--7-7-|--3--3-3-|--5--5-5-|--5----6---7----|
D|----------|---------|---------|----------------|
A|----------|---------|---------|----------------|
E|----------|---------|---------|----------------|
e|-------------------------------------------------------------------------|
B|-------------------------------------------------------------------------|
G|------------------------------------7---5-6-7----5--6-7---5-6-7---5--6-7-|
D|--------------------------------------7--------7--------7-------7--------|
A|--5---3-4-5---3--4-5---3-4-5---3--4--------------------------------------|
E|----5-------5--------5-------5-------------------------------------------|
[Dm]Oh tak pernah ku duga
Hidu[Gm]p ini menjadi berubah
Caha[C]ya gemerlap di sini
Sinari [F]setiap langkahk[A]u
Oo [Dm]semenjak denganmu
Semua gund[Gm]ah menjadi berubah
Yang hilan[C]g semua tentang cinta
Kembali t[F]umbuh di hat[A]i
[Bb]Oohoo ku bahagi[A]a
Ada engk[Gm]au
Lelakik[A]u
Di[Dm] hatiku hanya ada kamu[Gm] sayang
Di mimp[C]i malamku ada kamu[F] sayang
Semu[Bb]a ini hanyalah untukm[Gm]u sayang
Sebua[Bb]h lagu tercipta hanyal[A]ah untukmu oh asmar[A7]a
Oh lelaki idaman
Memang kamu tak ada yang lain
Semua gambaran idola
Segalanya ada padamu

Oo semenjak denganmu
Semua gundah menjadi berubah
Yang hilang semua tentang cinta
Kembali tumbuh di hati

Oohoo ku bahagia
Ada engkau
Lelakiku

Di hatiku hanya ada kamu sayang
Di mimpi malamku ada kamu sayang
Semua ini hanyalah untukmu sayang
Sebuah lagu tercipta hanyalah untukmu oh asmara

Di hatiku hanya ada kamu sayang
Di mimpi malamku ada kamu sayang
Semua ini hanyalah untukmu sayang
Sebuah lagu tercipta hanyalah untukmu oh asmara

Oh lelaki idaman
Memang kamu tak ada yang lain
Semua gambaran idola
Segalanya ada padamu

Oo semenjak denganmu
Semua gundah menjadi berubah
Yang hilang semua tentang cinta
Kembali tumbuh di hati

Oh lelaki idaman
Memang kamu tak ada yang lain
Semua gambaran idola
Segalanya ada padamu


| / slide up
| \ slide down
| h hammer-on
| p pull-off
| ~ vibrato
| + harmonic
| x Mute note
===============================================================================

Important: The song above is NOT stored on the Chordie server. The original song is hosted at www.guitaretab.com. Chordie works as a search engine and provides on-the-fly formatting. Chordie does not index songs against artists/composers will. To remove this song please click here.

Text color:
Chord color:
Chord grids: 
Font size:    
Page size: 

A A7 Bb C Dm F Gm
variations - click chord images

Login - add to songbook

Transpose chords

Tuning

Rating click stars to rate

Layout
Accuracy

SHARE PAGE  




You need to log in to post comments