Guitar Tabs, Chords and Lyrics


Second Coming   Melvins




  End (This repeats until song runs into "Ballad of Dwight Fry")
   Note: Pick scrapes and slides downwards start this off
     Am                  E                    G                    D
E-|------------------------|--------------------|-----------------------------|
B-|------------------------|--------------------|-----------------------------|
G-|------------------------|--------------------|-----------------------------|
D-|----------------2--3----|---3--2-------------|---------------2-------------|
A-|-------2--3--5----------|---------5--3--2----|------2--3--5-----5----------|
E-|---5------------------0-|------------------3-|---5-------------------------|


                    F                    C                    E
E-|-------------------|--------------------|----------------------------------|
B-|-------------------|--------------------|----------------------------------|
G-|-------------------|--------------------|----------------------------------|
D-|--2----------------|--------------------|----------------------------2-----|
A-|-----5--3--2-------|---------2--3--5--3-|---5--3--2------------1--2--------|
E-|--------------5--1-|---3--5-------------|------------5--3--0---------------|


           E
E-|-----------------------------|
B-|-----------------------------|
G-|-----------------------------|
D-|-----------------3--2--------|
A-|--1--2-----1--2--------3--2--|


Important: The song above is NOT stored on the Chordie server. The original song is hosted at www.guitaretab.com. Chordie works as a search engine and provides on-the-fly formatting. Chordie does not index songs against artists'/composers' will. To remove this song please click here.

This song is displayed as text-only. Transposing and tuning is only available for chordpro-songs.

Login - add to songbook

Rating click stars to rate

Layout
Accuracy

SHARE PAGE  




You need to log in to post comments