Raise A Paw

Melvins


Artist - Melvins Song - Raise A Paw Album - Ozma/Gluey Porch Treatments Tabbed by an17nin17
Tuning - Low to high - D, A, D, G, B, E
Fantastic song, would be even better if it was longer...
Intro -
|-------------------------------| |-------------------------------| |-------------------------------| |-------------------------------| |-------------------------------| |-1-1-1-1-1-1-1-1-1-1-1-1-1-1-1-| Play 6 times
just a note about this intro, there seems to be a guitar playing an E note (6th string, 2nd fret) in the intro as well as a guitar playing the Eb.
Intro/Verse -
|-----------------------------------------------------| |-----------------------------------------------------| |-----------------------------------------------------| |-----------------------------------------------------| |-----------------------------------------------------| |-1-1-1-1-1-1-1-1-5p1-1-1-1-1-1-1-1-5p1-1-1-1-1-1-1-1-|
|-----------------------| |-----------------------| |-----------------------| |-----4-----5-5-----6-0-| |---5-4--6--5-5--7--6-0-| |-0---4-----5-5-----6-0-|
Repeat Intro/Verse
Pre-Chorus -
|----------------------------------------------------------------------|
|----------------------------------------------------------------------| |----------------------------------------------------------------------| |---4-----5-5-----6-0-9-9-0-10-10-11-11-0------------------------------| |-5-4--6--5-5--7--6-0-9-9-0-10-10-11-11-0------------------------------| |---4-----5-5-----6-0-9-9-0-10-10-11-11-0-12^-12^-12^-12^-12^-12-12-12-|
|-----------------| |-----------------| |-----------------| |-----------------| |-----------------| |-12-12-12-12-12/-|
Chorus -
|-------------------------| |-------------------------| |-------------------------| |-5-0-0-2-3-0-6~~-0---0-0-| |-5-0-0-2-3-0-6~~-0---0-0-| |-5-0-0-2-3-0-6~~-0---0-0-| Play 4 times
Post Chorus -
|-----------------| |-----------------| |-----------------| |-0-0-0-0-0---6~~-| |-0-0-0-0-0---6~~-| |-0-0-0-0-0---6~~-| Play twice
Outro -
|-------------------------------------| |-------------------------------------| |-------------------------------------| |-------------------------------------| |-------------------------------------| |-6-6-6-6-6-6-6-6-6-6-6-6-6-6-6-6-6-6-| Play 3 times
And thats it. This song has no structure to what so ever (like the album).
If you have any comments or want any tabs contact me at TheFlameY2K@hotmail.com




















variations - click chord images
Transpose chords:
Tuning:
Cool service:
View: Size:
A  A  A
Rating:
Layout:
  • Currently 0/5 Stars.
  • 1
  • 2
  • 3
  • 4
  • 5
 
Accuracy:
  • Currently 2.5/5 Stars.
  • 1
  • 2
  • 3
  • 4
  • 5
 
click stars to rate
Chordie recommends:
Check out JamPlay.com for online video guitar lessons
Songbook:
Login to add this song to your songbook
Support the artist
Preview/buy this song
MSN Music
Why this non-profit ad?

 
login to add comments/video/corrections