Guitar Tabs, Chords and Lyrics


Happy Gray Or Black   Melvins



Melvins - Happy Gray Or Black
Submitted By: KoRn_COF
EMail: morning_errers@hotmail.com

Tuning: Standard (E A D G B E)

Intro
E|--------------|
B|--------------|
G|---77----9999-|
D|---77----9999-|
A|---55----7777-|
E|-0----00------|

Verse
E|---------|
B|---------|
G|---------|
D|---------|
A|---------|
E|-0202023-

Verse 2
E|-----------|
B|-----------|
G|---6-----6-|
D|-4-6-442-6-|
A|-4-4-442-4-|
E|-2---220---|

Bridge/end
E|--------|------------|--------------------|
B|--------|------------|--------------------|
G|--------|------------|-------------5~-----|
D|-2~--3~-|-2~--3~--4~-|-2~--3~--4~--5~--4~-|
A|-2~--3~-|-2~--3~--4~-|-2~--3~--4~--3~--4~-|
E|-0~--1~-|-0~--1~--2~-|-0~--1~--2~------2~-|

Bridge/end cont.
E|----------------------|
B|----------------------|
G|-6~-------------------|
D|-6~--6~-7~-6~-5~-6~~~-|
A|-4~--6~-7~-6~-5~-6~~~-|


Important: The song above is NOT stored on the Chordie server. The original song is hosted at www.guitaretab.com. Chordie works as a search engine and provides on-the-fly formatting. Chordie does not index songs against artists'/composers' will. To remove this song please click here.

This song is displayed as text-only. Transposing and tuning is only available for chordpro-songs.

Login - add to songbook

Rating click stars to rate

Layout
Accuracy

SHARE PAGE  




You need to log in to post comments