Guitar Tabs, Chords and Lyrics


Blood Witch   Melvins



Album- (A) Senile Animal
Artistr- Melvins
Song- Blood Witch


pm....- Palm Mute(only mute the note/chords with cots under them)

I am not sure on some parts of the song so just bear with me. The timing for the song is 
so you will have to listen to it.

Main Riff- 00:00-2:03 *there are some slight variations in the verses that are easy to 
out so I won't bother putting them in.

e-------------------------------------------------------------|
B-------------------------------------------------------------|
G-------------------------------------------------------------|
D-0---0--0-0--0-0-0--0-0--0---0-0--0-0-0--0-0--0---0-0--0-0-0-|
A-0---0--0-0--0-0-0--0-0--0---0-0--0-0-0--0-0--0---0-0--0-0-0-|
D-0---0--0-0--0-0-0--0-0--0---0-0--0-0-0--0-0--0---0-0--0-0-0-|
pm.   .  . .  . . .  . .  .   . .  . . .  . .  .   . .  . . .
e------------------------------------------------------------------|
B------------------------------------------------------------------|
G----------------------5-------------------------------------------|
D--0-0--0---0-0--0-0-0-5--0-0--0---0-0--0-0-0--0-0--0---0-0--0-0-0-|
A--0-0--0---0-0--0-0-0-3--0-0--0---0-0--0-0-0--0-0--0---0-0--0-0-0-|
D--0-0--0---0-0--0-0-0----0-0--0---0-0--0-0-0--0-0--0---0-0--0-0-0-|
pm . .  .   . .  . . .    . .  .   . .  . . .  . .  .   . .  . . .
e---------------------------------------------------|
B---------------------------------------------------|
G---------------------------------------------------|
D--0-0--0---0-0--0-0-0--0-0--0---0-0--0-0-0-5-2-3-2-|
A--0-0--0---0-0--0-0-0--0-0--0---0-0--0-0-0-5-2-3-2-|
D--0-0--0---0-0--0-0-0--0-0--0---0-0--0-0-0-5-2-3-2-|
pm . .  .   . .  . . .  . .  .   . .  . . .

Outro 2:04- 2:44

e--------------------------|
B--------------------------|
G--------------------------|
D-0-x-----3-x-----5-4-5-4--| 3x
A-0-x-----3-x-----5-4-5-4--|
D-0-x-0-0-3-x-0-0-5-4-5-4--|
pm    . .     . .

e------------------------------|
B------------------------------|
G------------------------------| 2x
D-0-x-----3--------------------|
A-0-x-----3--------------------|
D-0-x-0-0-3-x-0-0-5-4-5-4-5-4--|
pm    . .     . . . . . . . .

e----------------------------------|
B----------------------------------|
G----------------------------------|
D-0-x-----3-x----------------------| 2x
A-0-x-----3-x----------------------|
D-0-x-0-0-3-x-0-0-5-4-5-4-5-4-5-4--|
pm    . .     . . . . . . . . . .

e--------------------------|
B--------------------------|
G--------------------------|
D-0-x-----3-x-----5-4-5-4--| 3x
A-0-x-----3-x-----5-4-5-4--|
D-0-x-0-0-3-x-0-0-5-4-5-4--|
pm    . .     . .

e------------------------------|
B------------------------------|
G------------------------------| 2x
D-0-x-----3--------------------|
A-0-x-----3--------------------|
D-0-x-0-0-3-x-0-0-5-4-5-4-5-4--|
pm    . .     . . . . . . . .

e----------------------------------|
B----------------------------------|
G----------------------------------|
D-0-x-----3-x----------------------| 2x
A-0-x-----3-x----------------------|
D-0-x-0-0-3-x-0-0-5-4-5-4-5-4-5-4--|
pm    . .     . . . . . . . . . .



Important: The song above is NOT stored on the Chordie server. The original song is hosted at www.guitaretab.com. Chordie works as a search engine and provides on-the-fly formatting. Chordie does not index songs against artists/composers will. To remove this song please click here.

This song is displayed as text-only. Transposing and tuning is only available for chordpro-songs.

Login - add to songbook

Rating click stars to rate

Layout
Accuracy

SHARE PAGE  




You need to log in to post comments