Chordie logo


Twisted Metal   Mercy Within Brutality



Artist: Mercy Within Brutality
Song: Twisted Metal
Album: Mercy Within Brutality
Tabbed By: Teddynezz
                         A.k.A.
                                 Ninetales......
Tuning: Standard
Difficulty: Intermediate
Note: This Song Is Mainly Tremelo Picking (Fast Picking ::i.e. Horse Galop::)

Order Of Song:
Intro,
Wait,
Bleed Out Riff,
Verse,
Chorus,
Verse,
Chorus,
Bleed Out Riff,
Outro... =)

Enjoy

Intro:
E||--------------------------|-------------------------------------------------|
B||--------------------------|-------------------------------------------------|
G||--------------------------|-------------------------------------------------|
D||--------------------------|-------------------------------------------------|
A||--333---2--2--555---5---22------|--8--888-7--7-10--101010-7--77-5h7---------|
E||--111---0--0--333---3---00------|-------------------------------------------|

|--------------------------------------------|
|--------------------------------------------|
|--------------------------------------------|
|--------------------------------------------|
|--3-3-3-2---2-2h-5-55-----------------------|
|--1-1-1-0---0-0h-3-33---0--0--0--0--0--0----|

|---------------------------------------|
|---------------------------------------|
|---------------------------------------|
|---------------------------------------|
|--888---7---7-10---101010---7----------|
|--688---5--5--8----888--------5--------|

|--------------------------------------------|
|--------------------------------------------|
|--------------------------------------------|
|--------------------------------------------|
|--101010---9--9--12---121212---9---P--2-----|let ring
|---888-------7--7-10---101010---7----P-0----|let ring

Then The Wait:
scratch 4 times 1 second apart each time


Bleed Out Riff:
|----------------------|
|----------------------|x4
|----------------------|
|--2-2-----7-----------|
|--2-2--/7---8-7\5-----|
|--0-0-----------------|

Verse:
|-----------------------|
|-----------------------|x4
|-----------------------|
|--2-222---7------------|
|--2-222-----88-7-5-----|
|--0-002----------------|


Chorus:
|----------------------|
|----------------------|x4
|----------------------|
|--2-2-----7-----------|
|--2-2--/7---8-7\5-----|
|--0-0-----------------|

Interlude:
|-------------------------------------------------------|-----------------|
|-------------------------------------------------------|-----------------|
|-------------------------------------------------------|-----------------|
|-------------------------------------------------------|-----------------|x4
|-------------------------------------------------------|-----------------|
|--15-15-15-15-17p15-14-12-12-000-12-12-000-12-000-12-12-000-12-12-000----|

Bleed Out Riff:
|----------------------|
|----------------------|x4
|----------------------|
|--2-2-----7-----------|
|--2-2--/7---8-7\5-----|
|--0-0-----------------|

Outro:
|-----------------------------|
|-----------------------------|
|-----------------------------|
|-77777--5555--2--22----------|


Important: The song above is NOT stored on the Chordie server. The original song is hosted at www.guitaretab.com. Chordie works as a search engine and provides on-the-fly formatting. Chordie does not index songs against artists/composers will. To remove this song please click here.

This song is displayed as text-only. Transposing and tuning is only available for chordpro-songs.

Login - add to songbook

Rating click stars to rate

Layout
Accuracy

SHARE PAGE  




You need to log in to post comments