Chordie logo

To Live Is To Die Live   Metallica



To Live Is To Die Seattle
Metallica
Live Shit:Binge and Purge

This is played after Jason's solo.


James
E----------------------------------------------------------|
B--0-h-1--------0h1p0-----0--------------------------------|
G---------2-----------2----------2------0-------0----------|
D------------2-----------------------------------------2---|
A--0------------------------------------------------------2|
E-------------------------3---------3-------3---0----------|


E----------------------------------------------------------|
B--------------------------1-------------3-------3--------0|
G--0-------0-h-2------------------2------------------------|
D-----------------0------------------2---------------------|
A---------------------0----0-------------------------------|
E------0---1---------------------------------0---3-----3---|


E---------------------------------------------------|
B---------------------------0----------------3------|
G--0------0-------------0-------0-------------------|
D----------------2---------------------0------------|
A-------------------2-------2-------------2---------|
E-----0---0---------------------3---------------0---|

Kirk

E----------------------------------------------------------|
B----------------------------------------------------------|
G--4h5~-----4h5-4h5p4~-------------------------------------|
D-----------------------------7--5---7/5~--------5-5-5--7--|
A----------------------------------------------------------|
E----------------------------------------------------------|


E----------------------------------------------------------|
B----------------------------------------------------------|
G---------4h5--5~----5--7---7~------4---------------4------|
D--------------------------------------5---5--5-5-5--------|
A----------------------------------------------------------|
E----------------------------------------------------------|


Important: The song above is NOT stored on the Chordie server. The original song is hosted at www.guitaretab.com. Chordie works as a search engine and provides on-the-fly formatting. Chordie does not index songs against artists/composers will. To remove this song please click here.

This song is displayed as text-only. Transposing and tuning is only available for chordpro-songs.

Login - add to songbook

Rating click stars to rate

Layout
Accuracy

SHARE PAGE  

You need to log in to post comments