Chordie logo


Sabbra Cadabra   Metallica



Sabbra Cadabra by Metallica
Originally by Black Sabbath
Album - Garage Inc.

                                                                 x4
e-----------------------------------------------------------------|
B-------1--------------1------------------------------------------|
G---------2-2-2----------2-2-2--------0----------------0----------|
D-0h1h2----------0h1h2----------0h1h2---2p0------0h1h2---2p0------|
A------------------------------------------3p0-0------------3p0-0-|
D-----------------------------------------------------------------|

e----------------|
B----------------|
G-2--4--5--7-----|
D-2--4--5--7--5--|
A-0--2--3--5--5--|
D-------------5--|

Guitar 1
e--------------------------|
B--------------------------|
G--------------------------|
D-5/7-7--5/7-7--5-3-5-2-0--|
A-5/7-7--5/7-7--5-3-5-2-0--|
D-5/7-7--5/7-7--5-3-5-2-0--|

Guitar 2
e-------------------------------------------|
B-8h10-10-10p8---8h10-10--8-8-8-------------|
G--------------9----------------9p7-9p7-----|
D---------------------------------------7-7-|
A-------------------------------------------|
D-------------------------------------------|

Chorus
e-----------------------------|
B-----------------------------|
G-----------------------------|
D-0---2---5/7-7--------5/7-7--|
A-0---2---5/7-7--------5/7-7--|
D-0---2---5/7-7-7p5p0--5/7-7--|

2.12
e-----------------------------------------------------|
B-----------------------------------------------------|
G---------------------------------5-------------------|
D-7-5----------7-5------------------5-7--7-5----------|
A-----7-5----------7-5--------5-7------------7-5------|
D---------10-9---------10-9-7--------------------10-9-|

e--------------------------|
B--------------------------|
G-----------5-4------------|
D-7-5--2-0--5-4--7-5--2-0--|
A-7-5--2-0--3-2--7-5--2-0--|
D-7-5--2-0-------7-5--2-0--|

2.52
e----------------------------------------------|
B----------------------------------------------|
G--------------------------------1p0-----------|
D--------------------1p0---------------0-1-0-1-|
A-1h3-3-3--3-1h3-1h3-----1h3-3-3-----1---------|
D----------------------------------------------|

e----------------|
B----------------|
G-5-------3------|
D-5---1---3---3--|
A-3---1---1---3--|
D-----1-------3--|

e--------------|
B--------------|
G--------------|
D-4--5---1--3--|
A-4--5---1--3--|
D-4--5---1--3--|

e-------------------------------|
B-------------------------------|
G----------------------------5--|
D---------------1p0----------5--|
A-1h3-3-1h3-1h3-----1---1h3--3--|
D---------------------5---------|

e-----------------------------|
B-----------------------------|
G-----------------------------|
D-5-3-----5-3------5-7-8-7-5~-|
A-3-1-3-1-3-1-3-1--3-5-6-5-3~-|
D-----3-1-----3-1-------------|

song then repeats previous parts

Tabbed by Ben Shutt
Any corrections please comment
Thanks


Important: The song above is NOT stored on the Chordie server. The original song is hosted at www.guitaretab.com. Chordie works as a search engine and provides on-the-fly formatting. Chordie does not index songs against artists/composers will. To remove this song please click here.

This song is displayed as text-only. Transposing and tuning is only available for chordpro-songs.

Login - add to songbook

Rating click stars to rate

Layout
Accuracy

SHARE PAGE  




You need to log in to post comments