Chordie logo

Africa   Meters



-------------------------------------------------------------------------------
			     AFRICA - The Meters
-------------------------------------------------------------------------------
Tabbed by: Pakistanieagle77

Tuning: Standard

Intro: Guitar and Bass

e|----------------------------------------------------------------------------|
B|-----------------------------------(3)-(5)----------------------------------|
G|-----------3h4-5-4-------------(3)-(5---------------------------------------|
D|------------------------5-3------(3)-(5)------------------------------------|
A|-------------------------------5---1---3------------------------------------|
E|---3-3-3--------------------------------------------------------------------|

G|-----------3h4-5-4---------------------------------------------------------|
D|------------------------5-3------------------------------------------------|
A|-------------------------------5---1---3-----------------------------------|
E|---3-3-3-------------------------------------------------------------------|


Verses: (Take me on back...)
e|-----------------------------------------------------------------------------|
B|-----------------------------------------------------------------------------|
G|----5-3---3------------------------------------------------------------------|
D|---------------X-3-3-5-5-----------------------------------------------------|
A|-----------------------------------------------------------------------------|
E|-----------------------------------------------------------------------------|

Chorus: (Africa...)

e|---------1----3------------------------------------------------------------------|
B|---3----1----3-------------------------------------------------------------------|
G|---3---2----4--------------------------------------------------------------------|
D|---3---3----5--------------------------------------------------------------------|
A|----1--3-----5-------------------------------------------------------------------|
E|--------1----3-------------------------------------------------------------------|

G|------------------------------------------------------------------------|
D|------------------------------------------------------------------------|
A|---1--------------------------------------------------------------------|
E|-------1----3-----------------------------------------------------------|


| /  slide up
| \  slide down
| h  hammer-on
| p  pull-off
| ~  vibrato
| +  harmonic
| x  Mute note


Important: The song above is NOT stored on the Chordie server. The original song is hosted at www.guitaretab.com. Chordie works as a search engine and provides on-the-fly formatting. Chordie does not index songs against artists/composers will. To remove this song please click here.

This song is displayed as text-only. Transposing and tuning is only available for chordpro-songs.

Login - add to songbook

Rating click stars to rate

Layout
Accuracy

Jango Player

SHARE PAGE  



You need to log in to post comments