Louise Louisa

Mew

e|------0------------------4-----|

B|---7-----4--7--4------0--------|
G|-------------------------------|
D|-------------------------------|
A|-------------------------------|
E|-------------------------------|
e|-------0----------------4------|
B|---7-------4---7-4-2-----------|
G|-------------------------------|
D|-------------------------------|
A|-------------------------------|
E|-------------------------------|
e|-----0--------------------------4-----|
B|---7----4----7--4--------0------------|
G|--------------------------------------|
D|--------------------------------------|
A|--------------------------------------|
E|--------------------------------------|
e|-------0----------------4-------|
B|---7-------4---7-4-2------------|
G|--------------------------------|
D|--------------------------------|
A|--------------------------------|
E|--------------------------------|
e|------0-------------------------4-----|
B|---7------4---7---4--------0----------|
G|--------------------------------------|
D|--------------------------------------|
A|--------------------------------------|
E|--------------------------------------|
e|-------------|
B|----10-7-9---|
G|-------------|
D|-------------|
A|-------------|
E|-------------|
e|--------------------------------|
B|---4---7---4-----7---4---5------|
G|--------------------------------|
D|--------------------------------|
A|--------------------------------|
E|--------------------------------|

 EA
What a day I have had
 EA
What a day I have had
 EF#
Now it's over, isn't it?
 EA
What a day I have had
 EA
What a day I have had
 EF#
Now it's over, isn't it?
 AB
There goes Louisa
 AF#mE
 There goes Louisa

Bridge 2: E F D E A E
 FDFAD
(Last undefined note of Bridge 2:)
e|-----4----|
B|-----5----|
G|-----4----|
D|----------|
A|----------|
E|----------|


 FDEAEAD
e|-----0------------5--4-----------------------|
B|--------4---0------------2-------------------|
G|-----------------------------6--9--11--8-----|
D|---------------------------------------------|
A|---------------------------------------------|
E|---------------------------------------------|


 EAF#mED
 E  A  F#m  E  Dh

e|-----------------|
B|-----------------|
G|-----7---2--1----|
D|-----------------|
A|-----------------|
E|-----------------|


Dig out yourself from rubble
e|---------------------------------|
B|---------------------------------|
G|--------------------------6--4---|
D|-------4----6--7----4------------|
A|----4----------------------------|
E|---------------------------------|


Removing all your skin
e|--------------------------|
B|--------------------------|
G|--------------------------|
D|----7-8-9---4----4----2---|
A|--------------------------|
E|--------------------------|


And don't ever think of trouble
e|------------------------------------|
B|------------------------------------|
G|----------------------------6---4---|
D|-------4-----6-6---7-----4----------|
A|---4--------------------------------|
E|------------------------------------|


The darkness that has been
e|------------------------------|
B|------------------------------|
G|------------------------------|
D|----7---8---9----4----4---2---|
A|------------------------------|
E|------------------------------|


No, don't patronize with sorrow
e|------------------------------------|
B|------------------------------------|
G|------------------------------------|
D|--------4------6-7--2---0----7------|
A|---4----------------------------4---|
E|------------------------------------|


I don't mean to
e|---------------------|
B|---2--------0----2---|
G|------2--------------|
D|---------------------|
A|---------------------|
E|---------------------|


Eh Ah
I'm in a car
Eh Ah
I don't know where we are

headed for
e|----4-----------|
B|----------------|
G|-----------4----|
D|----------------|
A|----------------|
E|----------------|


 EF#
 Stay with me
 EF#A
 Don't want to be alone

Eh Ah
I'm in a car
Eh Ah
I don't know where we are

headed for
e|----4-----------|
B|----------------|
G|-----------4----|
D|----------------|
A|----------------|
E|----------------|


 EF#
 Stay with me
 EF#A
 Don't want to be alone
Eh Ah
I'm in a car
Eh Ah
I don't know where we are

headed for
e|----4-----------|
B|----------------|
G|-----------4----|
D|----------------|
A|----------------|
E|----------------|


Stay with me
Don't want to be alone


A B D E F F# F#m
variations - click chord images
Transpose chords:
Tuning:
Cool service:
View: Size:
A  A  A
Rating:
Layout:
  • Currently 1/5 Stars.
  • 1
  • 2
  • 3
  • 4
  • 5
 
Accuracy:
  • Currently 3.5/5 Stars.
  • 1
  • 2
  • 3
  • 4
  • 5
 
click stars to rate
Chordie recommends:
Learn to play this song & others via video guitar lessons at JamPlay.com
Songbook:
Login to add this song to your songbook
Support the artist
Preview/buy this song
MSN Music
Why this non-profit ad?

 
login to add comments/video/corrections