"yes"; ?> Silencer by Mewithoutyou - guitar chords, guitar tabs and lyrics - chordie

Silencer

Mewithoutyou

 BAEGF#D
e---|---|---|---|---|---|
B---|---|---|---|---|---|
G-4-|-2-|---|---|---|---|
D-4-|-2-|-2-|-5-|-4-|-0-|
A-2-|-0-|-2-|-5-|-4-|-0-|
D---|---|-2-|-5-|-4-|-0-|


You'll need to listen to the CD to get the correct rhythm.

Intro:

e---------------------------------------------------------|
B---------------------------------------------------------|
G---------------------------------------------------------|
D-----4-------4-----4-----4-------4-----------------------|
A--2-------0-------------------------0--------------------|
D----------------2-----5-------4-----0--------------------|


4X

Along with:

e---|------------------------------------------------------|
B---|------------------------------------------------------|
G-7/|-4/7/6/9---4/7/6--------------------------------------|
D---|------------------------------------------------------|
A---|------------------------------------------------------|
D---|------------------------------------------------------|


Then intro 4X

Next:

B A E G F# 4X

Intro (with slight variations) 2X

Then:

 DF#B
First part of intro

Then:

 DF#
Last part of intro

Next:

B F# D E 4X

Then:

Play around on B

Then:

B F# D E 4X

Then:

B F# D E D 4X (With a lot of other instrumentation around it.)

End with the intro 2X

Thanks for your time. I Know this is not the best, but for goodness' sake, there
needed to be a mewithoutYou tab online!


A B D E F# G
variations - click chord images
Transpose chords:
Tuning:
Cool service:
View: Size:
A  A  A
Rating:
Layout:
  • Currently 2.6/5 Stars.
  • 1
  • 2
  • 3
  • 4
  • 5
 
Accuracy:
  • Currently 2.7/5 Stars.
  • 1
  • 2
  • 3
  • 4
  • 5
 
click stars to rate
Chordie recommends:
Get acoustic guitar lessons and electric guitar lessons at JamPlay.com
Songbook:
Login to add this song to your songbook
Support the artist
Preview/buy this song
MSN Music
Why this non-profit ad?

 
login to add comments/video/corrections