Guitar Tabs, Chords and Lyrics


My Exit Unfair   Mewithoutyou



Petey D.  Mxpxssml4@hotmail.com
Intro
------0---------0---------0---------0----------0-------------------12---|
------0---------0---------0---------0----------0----10------------12----|
---7--9----9-7--4------7--9----9-7--4------7--9----12(14)-12-----12-----|
-9----7---------2----9----7---------2----9-----7--------------14--------|
------0---------0---------0---------0----------0------------------------|
------0-------------------0--------------------0-------------0----------|

------0---------0-|
------0---------0-|
-4-0--2----5-4--4-|
------2---------2-|
------0---------2-|
----------------0-|

Verse Guitar 1
-------------------------------------------------|
-------------------------------------------------|
-------------------------------------------------|
-(5)(5)(5)(5)-5----------------------------------|
-------------(2)(2)(2)-(0)(0)(0)(0)-0-(2)(2)(2)--|
---------------------------------(0)(0)(0)-------|

Verse Guitar 2
-------------------------|-------------------|
-------------------------|-12----------------|
-12/11-11-11-11---11/9--|-----11--7h9-7-9----|
-------------------------|-------------------|
-------------------------|-------------------|
-------------------------|-------------------|

Chorus Part 1 (And just like the clouds...)
-------------------------------------------------------------------------------------|
----------------------------------12-12-12-12-12-12-12-12-12-12-12-12-12-12-12-12----|
-9-9-9-9-9-9-9-9-9-9-9-9-9-9-9-9-x--x--x--x--x--x--x--x---x--x--x--x--x--x--x--x-----|
-x-x-x-x-x-x-x-x-x-x-x-x-x-x-x-x-10-10-10-10-10-10-10-10-10-10-10-10-10-10-10-10-----|
-7-7-7-7-7-7-7-7-7-7-7-7-7-7-7-7-0--0--0--0--0--0--0--0---0--0--0--0--0--0--0--0-----|
-0-0-0-0-0-0-0-0-0-0-0-0-0-0-0-0-----------------------------------------------------|

Chorus Part 2 (And now I spend my days)(if rearranged=outro) (second guitar=ebow)
-------------------------------------------------------------------------------------|
-------------------------------------------------------------------------------------|
-9-9-9-9-9-9-9-9-9-9-9-9-9-9-9-9-9-9-9-9-9-9-9-9--|9-9-9-9-9-9-9-9-|-12------12------|
-x-x-x-x-x-x-x-x-x-x-x-x-x-x-x-x-7-7-7--7-7-7-7-7--|x-x-x-x-x-x-x-x-|-x-------x------|
-7-7-7-7-7-7-7-7-7-7-7-7-7-7-7-7-0-0-0-0-0-0-0-0--|7-7-7-7-7-7-7-7-|-10------10------|
-8-8-8-8-8-8-8-8-7-7-7-7-7-7-7-7-------------------|0-0-0-0-0-0-0-0-|---0---0----0---|

Bridge
-------------------|
-7-7-7-7-5-5-5-5---|
-4-4-4-4-0-0-5-5---|
-------------------|
-------------------|


Important: The song above is NOT stored on the Chordie server. The original song is hosted at www.guitaretab.com. Chordie works as a search engine and provides on-the-fly formatting. Chordie does not index songs against artists'/composers' will. To remove this song please click here.

This song is displayed as text-only. Transposing and tuning is only available for chordpro-songs.

Login - add to songbook

Rating click stars to rate

Layout
Accuracy

SHARE PAGE  




You need to log in to post comments