Guitar Tabs, Chords and Lyrics


Nice And Blue   Mewithoutyou



Intro/Verse x4
--------------------------------------------------|
--------------------------------------------------|
--------------------------------------------------|
--------------------------------------------------|
--------------------------------------------------|
--2-------9---------5----------10-----------------|

Guitar Interlude x4
-------------------------------------------------|
-------------------------------------------------|
-------------------------------------------------|
-------4----2-----0h2-0h2------------------------|
--0h2--------------------------------------------|
-------------------------------------------------|

Chorus...i was once the wine...x2
------------------------------------------------|
------------------------------------------------|
---4-----7-----4--------------------------------|
---4-----7-----4-----7--------------------------|
---2-----5-----2-----7--------------------------|
---------------------5--------------------------|

Verse x4


Chorus x2

Pre-Bridge x8
------------------------------------------------|
------------------------------------------------|
------------------------------------------------|
------------------------------------------------|
---0h2------------------------------------------|
------------------------------------------------|

Bass Part to the end..here it is if you want it
------------------------------------------------|
------------------------------------------------|
--2-2-2---------5-5-5-------2-2-2---------------|


Important: The song above is NOT stored on the Chordie server. The original song is hosted at www.guitaretab.com. Chordie works as a search engine and provides on-the-fly formatting. Chordie does not index songs against artists'/composers' will. To remove this song please click here.

This song is displayed as text-only. Transposing and tuning is only available for chordpro-songs.

Login - add to songbook

Rating click stars to rate

Layout
Accuracy

SHARE PAGE  




You need to log in to post comments