Guitar Tabs, Chords and Lyrics


Andromeda  Mexicanto

  [C]          [G]          [F]                    [C]          [G]          [F]                                          
e|----------------3----------1----------------------------3---------1--------------------------|
B|------1-------3---3-----1---------------------1-------3---3-----1----------------------------|
G|----0---0---0---------2---------------------0---0---0---------2------------------------------|
D|--2---------------------------------------2--------------------------------------------------|
A|3---------------------------------------3----------------------------------------------------|
E|----------3---------1-----------------------------3---------1--------------------------------|


GUITARRA 2
e|-----------------------------0-0-0--0-0--0---0-------------0--------0-0-0--0-0--0---0--------|
B|-----------------------------8-8-8--8-8--8/1-1----------3/5---------8-8-8--8-8--8/1-1--------|
G|------------------------------------------------------0--------------------------------------|
D|---------------------------------------------------------------------------------------------|
A|----------------------------------------------------2----------------------------------------|
E|--------------------------------------------------3------------------------------------------|


VERSO 1:
[C] Te vistes de n[G]egro distante gal[F]axia
Me envuelves de pronto profunda y extr[C]aña
Te mueves de pr[G]isa llevando mi ali[F]ento
Viajando tu ruta de fe a c[C]ontratiempooo[G]o   o[F]oooo


VERSO 2:
[C] Principio te di[G]ó una explosión de rep[F]ente
Visión de colores me inundas me enci[C]endes
Viajando tu esp[G]acio que llevo en la m[F]ente
Me dejas reflejos que expresan mi su[C]erte [G]eee ee[F]eee


CORO:
Quien te d[Am]escubrió no su[Em]po ni la mit[F]ad
De la es[C]encia que te hac[G]e particul[F]ar
Tan especi[Am]al,  [Em]   origin[F]al
Fue la n[Dm]oche, fue emoci[G]ón, quiz[C]ás mi im[C/B]aginaci[Am]ón   [G]
Que al quer[F]er amarte  [G] sólo te llamó  [C]


VERSO 3:
[C] Te miro de ab[G]ajo me quedas lej[F]ana
Quisiera arrancarte de un golpa las g[C]anas
Vigilas mi and[G]ar por encima viaj[F]era
Te llevo en la piel me has cubierto de estr[C]ellas  aa[G]a aa[F]aaaa


CORO:
Quien te d[Am]escubrió no su[Em]po ni la mit[F]ad
De la es[C]encia que te hac[G]e particul[F]ar
Tan especi[Am]al,  [Em]   origin[F]al
Fue la n[Dm]oche, fue emoci[G]ón, quiz[C]ás mi im[C/B]aginaci[Am]ón   [G]
Que al quer[F]er amarte  [G] sólo te llamó  [C]
Fue un chisp[F]azo, fue un err[G]or  no preg[C]untes qu[C/B]e se y[Am]o    [G]
Que al pon[F]erte nombre Andr[G]omeda te di[C]ó  [C/B-Am-F]
Te puso Andromed[C]a, [C/B-Am-F]          te puso Andromed[C]a  [C/B-Am-F]

Important: The song above is NOT stored on the Chordie server. The original song is hosted at www.guitaretab.com. Chordie works as a search engine and provides on-the-fly formatting. Chordie does not index songs against artists'/composers' will. To remove this song please click here.

Text color:
Chord color:
Chord grids: 
Font size:    
Page size: 

Am C C/B Dm Em F G
variations - click chord images

Login - add to songbook

Transpose chords

Tuning

Rating click stars to rate

Layout
Accuracy

SHARE PAGE  




You need to log in to post comments