eToCache5 = ""; ?> Toplice by Mi2 - guitar chords, guitar tabs and lyrics - chordie

Toplice

Mi2

 DDsus2G7MG6
e|-2---0-------2-----0----|
B|-3---3-------3-----3----|
G|-2---2-------0-----0----|  <-- Chours
D|-0---0-------0-----0----|
A|-0---0-------2-----2----|
E|------------------------|


INTRO:

 DDsus2G7MG6
e|-2---2--------0------0--------2---2--------0------0--------|
B|-3-------3-------3------3-----3-------3-------3------3-----|
G|-2---------2-------2------2---0---------0-------0------0---|
D|-0----------------------------0----------------------------|
A|-0----------------------------2----------------------------|
E|-----------------------------------------------------------|


 DDsus2G7M
e|-2---2--------0------0--------2----------------|
B|-3-------3-------3------3-----3----------------|
G|-2---------2-------2------2---0----------------|
D|-0----------------------------0----------------|
A|-0----------------------------2----------------|
E|-----------------------------------------------|


(D Dsus2 G7M G6 ) 2x

PART 1:

 BmG
Nikol se nisn kaj preveč; sekiral
 EmG
kaj bo jutri al pa dan potem
 BmG
&#353;ola šla je kolko tolko vredi
 EmG
dnar pa tudi ni bil glih problem.

 BmG
Našo sn si v Sotelskem kurirji
 EmG
fino službo za poletne dni
 BmG
bil sn bademajster na bazeni
 EmG
&#269;uval deco, da se ne ftopi.

 BmGEmG
e|-2-2-2-2-3-3-3-3-3-3-3-3-3-3-3-3-|
B|-3-3-3-3-3-3-3-3-5-5-5-5-3-3-3-3-|
G|-4-4-4-4-4-4-4-4-4-4-4-4-4-4-4-4-|  --4x
D|---------------------------------|
A|---------------------------------|
E|---------------------------------|


CHOURS 1:

 DDsus2G7MG6
Pooojdi z menoj v toplice   
 DDsus2G7MG6
boooma lepa boma fit    
 DDsus2G7MG6
jeees bom dobo moč;ne roke
 DDsus2G7MG6
tiii pa malo manj#3;o rit.

PART 2:

 BmG
Prišla si s svojo staro mamo
 EmG
revma jo je trgala v kosteh
 BmG
vsak dan si se hodla z njo namakat
 EmG
z menoj pa pocartat se v no&#269;eh.

 BmG
Bla je to ljubezen v toplicah
 EmG
stara klop je škripala C-mol
 BmG
rekla si mi, da me ma53; ful rada
 EmG
jes pa tebi, da te mam #3;e bolj.

 BmGEmG
e|-2-2-2-2-3-3-3-3-3-3-3-3-3-3-3-3-|
B|-3-3-3-3-3-3-3-3-5-5-5-5-3-3-3-3-|
G|-4-4-4-4-4-4-4-4-4-4-4-4-4-4-4-4-|  --4x
D|---------------------------------|
A|---------------------------------|
E|---------------------------------|


CHOURS 2:

 DDsus2G7MG6
Pooojdi z menoj v toplice   
 DDsus2G7MG6
boooma lepa boma fit    
 DDsus2G7MG6
jeees bom dobo moč;ne roke
 DDsus2G7MG6
tiii pa malo manj#3;o rit.

SOLO:

e|-------------------------------------------------------------------------------------|
B|-------------------------------------------------------------------------------------|
G|-7/9--9/11--9--7--9--9----7/9--9/11--9--7--9--4----7/9--9/11--9--7--9--9------7------|
D|-------------------------------------------------------------------------------------|
A|-------------------------------------------------------------------------------------|
E|-------------------------------------------------------------------------------------|


 BmGEmG
e|-2--2-2-2-X-X-X-X-3--3-3-3-X-X-X-X-3--3-3-3-X-X-X-X-3--3-3-3-X-X-X-X-|
B|-3--3-3-3-X-X-X-X-3--3-3-3-X-X-X-X-5--5-5-5-X-X-X-X-3--3-3-3-X-X-X-X-|
G|-4--4-4-4-X-X-X-X-4--4-4-4-X-X-X-X-4--4-4-4-X-X-X-X-4--4-4-4-X-X-X-X-|  --2x
D|---------------------------------------------------------------------|
A|---------------------------------------------------------------------|  (guitar 2 during the solo)
E|---------------------------------------------------------------------|


PART 3:

 BmG
Teden dni dopusta hitro mine
 EmG
socialna pa kaj več ne da
 BmG
prej ko si se ftegnila navezat
 EmG
si pospravla kufre in si &#353;la.

 BmG
Jes še zmeraj čvajim ob bazeni
 F
&#269;akam, da poletje gre v jesen
 BmG
v&#269;asih se nasmehnem, ko s terase
 F
se začuje zlajdrani refren.

 BmGEmG
e|-2--2-2-2-X-X-X-X-3--3-3-3-X-X-X-X-3--3-3-3-X-X-X-X-3--3-3-3-X-X-X-X-|
B|-3--3-3-3-X-X-X-X-3--3-3-3-X-X-X-X-5--5-5-5-X-X-X-X-3--3-3-3-X-X-X-X-|
G|-4--4-4-4-X-X-X-X-4--4-4-4-X-X-X-X-4--4-4-4-X-X-X-X-4--4-4-4-X-X-X-X-|  --2x
D|---------------------------------------------------------------------|
A|---------------------------------------------------------------------|
E|---------------------------------------------------------------------|


 BmGF
e|-2------3------1------------|
B|-3------3------1------------|
G|-4------4------2------------|  --2x
D|----------------------------|
A|----------------------------|
E|----------------------------|


CHOURS 3:
(D Dsus2 G7M G6 ) 2x

 DDsus2G7MG6
Pooojdi z menoj v toplice   
 DDsus2G7MG6
boooma lepa boma fit    
 DDsus2G7MG6
jeees bom dobo moč;ne roke
 DDsus2G7MG6
tiii pa malo manj#3;o rit.


Bm D Dsus2 Em F G G6
variations - click chord images
Transpose chords:
Tuning:
Cool service:
View: Size:
A  A  A
Rating:
Layout:
  • Currently 2.8/5 Stars.
  • 1
  • 2
  • 3
  • 4
  • 5
 
Accuracy:
  • Currently 3.3/5 Stars.
  • 1
  • 2
  • 3
  • 4
  • 5
 
click stars to rate
Chordie recommends:
Check out JamPlay.com for online video guitar lessons
Songbook:
Login to add this song to your songbook
Support the artist
Preview/buy this song
MSN Music
Why this non-profit ad?

 
login to add comments/video/corrections