Guitar Tabs, Chords and Lyrics


Mad World  Michael Andrews

---------------------------------------------------------------------



 E|--0-----------------------------|--0-----------------------------|

B|1---0-1---0---------------------|1---0-1---0--1-3-------3--------|
G|--------2---0-------2-------2---|--------2----------0-------0----|
D|--------------4-0-------0-------|--------------------------------|
A|--------------------------------|--------------------------------|
E|--------------------------------|--------------------------------|
---------------------------------------------------------------------
[Am]All around me are fam[C]iliar faces
[G]Worn out places, [D]worn out faces [Am]
Bright and early for their [C]daily races
[G]Going nowhere, [D]going nowhere [Am]
Their tears are filling [C]up their glasses
[G]No expression, [D]no expression [Am]
Hide my head I want to [C]drown my sorrow
[G]No tomorrow, [D]no tomorrow [Am]
And I find it kinda [D]funny
I find it kinda [Am]sad
The dreams in which I'm [D]dying
Are the best I've ever [Am]had
I find it hard to [D]tell you
I find it hard to [Am]take
When people run in [D]circles
It's a very, very,[Am] mad [D]world,[Am] mad [D]world
[Am]Children waiting for the [C]day they feel good
[G]Happy Birthday, [D]Happy Birthday [Am]
Made to feel the way that [C]every child should
[G]Sit and listen, [D]sit and listen [Am]
Went to school and I was [C]very nervous
[G]No one knew me, [D]no one knew me [Am]
Hello teacher tell me [C]what's my lesson
[G]Look right through me, [D]look right through me [Am]
And I find it kinda [D]funny
I find it kinda [Am]sad
The dreams in which I'm [D]dying
Are the best I've ever [Am]had
I find it hard to [D]tell you
I find it hard to [Am]take
When people run in [D]circles
It's a very, very,[Am] mad [D]world,[Am] mad [D]world
En[Am]large your [D]world [Am]
Ma[D]d world

Important: The song above is NOT stored on the Chordie server. The original song is hosted at www.guitaretab.com. Chordie works as a search engine and provides on-the-fly formatting. Chordie does not index songs against artists'/composers' will. To remove this song please click here.

Text color:
Chord color:
Chord grids: 
Font size:    
Page size: 

Am C D G
variations - click chord images

Login - add to songbook

Transpose chords

Tuning

Rating click stars to rate

Layout
Accuracy

SHARE PAGE  




You need to log in to post comments