Guitar Tabs, Chords and Lyrics


Artifact And The Living   Michael Andrews



---------------------------------------------------------------------------
			     The Artifact and the living
---------------------------------------------------------------------------
Tabbed by: Dave Grahyl

Tuning: Normal
This is just the piano tune during the first minute of the song,  
With the piano rhythem in the background going from Bm on the 7th fret to A# on the 6th fret.
it's such a moving song, Makes your mind wander.   

(Background chords)
   Bm   A# 
e|-7----6----------------|
B|-7----6----------------|
G|-7----7----------------|
D|-9----8----------------|
A|-9----8----------------|
E|-7----6----------------|



e|---------------------------------------------------------|
B|-7---5-7-10-8-7--7-5-7-----------------------------------|
G|---7--------------------7--9-10--------------------------|
D|--------------------------------8-7-5--------------------|
A|-------------------------------------------------9-------|
E|-------------------------------------------------7-------|

e|---------------------------------------------------------|
B|-7---5-7-10-8-7--7-5-7--12-------------------------------|
G|---7----------------------11-9-7--9-10-------------------|
D|---------------------------------------8-7-5-------------|
A|---------------------------------------------------------|
E|---------------------------------------------------------|

e|---------------------------------------------------------|
B|--------------13-----------------------10----8-9---8-----|
G|-7-9-10-12-14------------9-7------5-7----------------8---|
D|----------------------------8-5------------------------8-|
A|---------------------------------------------------------|
E|---------------------------------------------------------|

e|---------------------------------------------------------|
B|---------------------------------------------------------|
G|---------------------------------------------------------|
D|---------9-----------------------------------------------|
A|-10------------------------------------------------------|
E|---------------------------------------------------------|


still in progress

| /  slide up
| \  slide down
| h  hammer-on
| p  pull-off
| ~  vibrato
| +  harmonic
| x  Mute note
===========================================================================


Important: The song above is NOT stored on the Chordie server. The original song is hosted at www.guitaretab.com. Chordie works as a search engine and provides on-the-fly formatting. Chordie does not index songs against artists'/composers' will. To remove this song please click here.

This song is displayed as text-only. Transposing and tuning is only available for chordpro-songs.

Login - add to songbook

Rating click stars to rate

Layout
Accuracy

SHARE PAGE  




You need to log in to post comments