Guitar Tabs, Chords and Lyrics


Take Me To Your Heart  Michael Learns To Rock

E|-2-2-2-2--6-6-6-6--2-2-2-2-2-2vv--|


A|-4-4-4-4--6-6-6-6--2-2-2-2-4-4vv--|


D|-2-2-2-4--8-8-8-8--4-4-4-4-2-2vv--|

g|-3-3-3-3--8-8-8-8--4-4-4-4-3-3vv--|
b|-2-2-2-2--7-7-7-7--4-4-4-4-2-2vv--|
E|-2-2-2-2--6-6-6-6--2-2-2-2-2-2vv--|
E|-------------------------------|
A|--4~---------------------------|
D|-------------------------------|
g|-------------------------------|
b|-------------------------------|
E|--2~--2-4-6v-4v-6v-------------|
[F7]hinding from rain and snow
[Ebm]trying to forget but i won't let go
[B]looking at the crowded street l[C#]istening
to my own heartbeat

|guItar|two|
e|---4----2~----------|
B|-----3--------------|



[Ebm]so many [Bbm]people [B]all [C#]around the [F7]world
[Ebm]tell me where do l'll [Bbm]find
|guItar|two|
e|---6~-------------------|
b|------7-5~-7~-----------|


[Ab]someone like you [C#]girl

|ChOrus|

ta[C#]ke me to your [F7]heart take me to your
[Ebm]soul give me your [B]hand before Im [C#]old

|guitar|two|
e|---4h5-----3~----------|
b|-------(4~)------------|


show me what [F7]love is haven't got a [Ebm]clue
show me that [B]wonders can be [C#]true
they say [Bbm]nothing lasts fo[Ebm]rever
[G#m]We're only here [C#]today
[Bbm]love is now or [Ebm]never
[Ab]bring me far [C#]away

t[C#]ake me to your [F7]heart take [Ebm]me to your soul
[B]give me your hand and [C#]hold me
[F7]show me what love is be my [Ebm]gardian star
It's [G#m]easy   [C#]take me to your [F7]heart
|guitar|one| B C# B C# Ebm Bbm B C#


|guitar|three|small help|
e|----------------------------|
A|--2~~-----------------------|
D|------4~--------------------|
G|---------4~---4-----4-------|
B|----------------4-----4-----|
e|------------4-----3-----3---|
E|----------------------------|
A|--4~~-----------------------|
D|------6~--------------------|
G|---------6~---6-----6-------|
A|----------------6-----6-----|
e|------------4-----4-----4---|


|Guitar|two|
e|------------------------------------|
A|------------------------------------|
D|------------------------------------|
G|------------------------------------|
b|--7-h9-7-h9-----9~---------9~-------|
e|-------------7~----9p7-9-7~---------|
e|------------------------------------|
A|------------------------------------|
D|------------------------------------|
G|------------------------------------|
b|--7-h9-7-h9-----9~-----9p7-9~~------|
e|-------------7~----9p7---------9h7~-|
e|-----------------------------|
A|-----------------------------|
D|-----------------------------|
G|-----------------------------|
b|--9~7~9~-----9~-7~-9~--------|
e|---------7~~---------8~~7~---|
e|-------------------------------|
A|-------------------------------|
D|-------------------------------|
G|-------------------------------|
b|--7~h8p7--9~---------9~-7~-----|
e|-------------7~-9~-7~------7~~-|



[F7]standing at a mountain high
looking in a [Ebm]moon in a clear  blue sky
[B]i should go and see some friends
but [C#]they don't really comprehend
[Ebm]I don't need too much [Bbm]talking
with out [B]saying [C#]any[F7]thing
[Ebm]all i need is [Bbm]someone
who [G#m]makes me wanna [C#]sing
|repeat chorus|
----------------------------------------------------------------------------				


Important: The song above is NOT stored on the Chordie server. The original song is hosted at www.guitaretab.com. Chordie works as a search engine and provides on-the-fly formatting. Chordie does not index songs against artists'/composers' will. To remove this song please click here.

Text color:
Chord color:
Chord grids: 
Font size:    
Page size: 

Ab B Bbm C# Ebm F7 G#m
variations - click chord images

Login - add to songbook

Transpose chords

Tuning

Rating click stars to rate

Layout
Accuracy

SHARE PAGE  




You need to log in to post comments