Guitar Tabs, Chords and Lyrics


Heart Asks Pleasure First   Michael Nyman



Song   : The Heart Asks Pleasure First
Artist : Michael Nyman
Album  : "The Piano" Theme

     Am                        Em
e||--------------------------------------------|
B||------------------0-------------------------|
G||.--2-----2---2---------2-----0--------------|
D||.----2-----2---2-----2---2-------2-----2----|
A||-------0---------0---------0---2---2-----2--|
E||------------------------------------0-------|

    F
e|------------------0------------------------|
B|--1-----1---1---------3-----1---0-----1-0--|
G|-------------------------------------------|
D|----3-----3---3-----3---3-----3---3--------|
A|------3---------3---------3---------3------|
E|-------------------------------------------|

    Am                         Em            
e|------------0---------------------|----------------------|
B|------------------1---------------|----------------------|
G|--2-----2-------------2------0----|----------------------|
D|----2-----2---2-----2---2---------|--2-----0--------0----|
A|------0---------0---------0----2--|----2-----3-(3)----3--|
E|----------------------------------|------0---------------|

   __________________________________________
  |1        E         Am
e|------------------------------------------||
B|------------------------------------------||
G|----------------1---2-----2---2----------.||
D|--(0)--0--2-------2---2-----2---2---2----.||
A|------------2-----------0---------0---0---||
E|--------------0---------------------------||

   _________________________________________
  |2        E         Am
e|-----------------------------------------|
B|--------------------------------------1--|
G|----------------1---2-----2---2-----2----|
D|--(0)--0--2-------2---2-----2---2--------|
A|------------2-----------0---------0------|
E|--------------0--------------------------|


e|--0-----0-----0-----------------------0------------|
B|----1-----1-----1---3-----1-----1-------1---3------|
G|------2-----2-----2---2-----2-----2-------2---2----|
D|------------------------2-----2-----2-----------2--|
A|---------------------------------------------------|
E|---------------------------------------------------|

e|--0-----0-----0------------------------------------|
B|----1-----1-----1---3-----1-----1------------------|
G|------2-----2-----2---2-----2-----2---2-----2------|
D|------------------------2-----2-----2---2-----2----|
A|------------------------------------------0-----0--|
E|---------------------------------------------------|

e|------------------0------------------------|
B|--1-----0-1-1-------3-3-----1---0-------0--|
G|----2---------2---------2-----2---2---0----|
D|------2---------2---------2---------2------|
A|-------------------------------------------|
E|-------------------------------------------|

e|-------0-----------0-------0-----0-----0------||
B|-1---------1-----1---0---------------------0--||
G|---2-----2---2---------2-----2-----2-----2----||
D|-----2---------2---------2-----2-----2--------||
A|----------------------------------------------||
E|----------------------------------------------||

This in not the whole song, a small last part is missing... Hope someday I'll tab it...

CU around
Apostolos Koutsoulelos


Important: The song above is NOT stored on the Chordie server. The original song is hosted at www.guitaretab.com. Chordie works as a search engine and provides on-the-fly formatting. Chordie does not index songs against artists'/composers' will. To remove this song please click here.

This song is displayed as text-only. Transposing and tuning is only available for chordpro-songs.

Login - add to songbook

Rating click stars to rate

Layout
Accuracy

SHARE PAGE  




You need to log in to post comments